Silent Night

(/) Slide Up  (\) Slide Down  (h) Hammer On  (p) Pull Off  (b) Bend (r) Release (v) Vibrato
E|-----------0--------------------------------0-----------------------5-----------5--
B|--3-----------3--0-----------------3-----------3--0-----------------------7--------
G|--------0--------------0-----0-----------0--------------0-----0--------7-----7-----
D|-----0--------------0-----0-----0-----0--------------0-----0-----0--0--------------
A|-----------------------------------------------------------------------------------
E|--3--------------3-----------------3--------------3--------------------------------



E|--2-----------------3-----------3--------------------0-----------0-----------2--0--
B|--------3-----3-----------0--------3-----------------------1--------3-----1--------
G|-----2-----2-----2-----0-----0-----------0-----0--------0-----0--------0-----------
D|--0-----------------------------------0-----0-----0--------------------------------
A|-----------------------------------------------------3-----------------------------
E|--------------------3--------------3--------------------------------3--------------



E|-----------0-----------------------0-----------0--3--------2--0-----------0-----
B|--3-----------3--0-----------------------1--------------1--------3-----------3--
G|--------0--------------0-----0--------0-----0--------0-----------------0--------
D|-----0--------------0-----0-----0-----------------------------------0-----------
A|-----------------------------------3--------------3-----------------------------
E|--3--------------3-----------------------------------------------3--------------



E|--------------------5-----------5--8--------5-----3-----------------7--
B|--0-----------------------7--------------7-----7--------0-----0-----0--
G|--------0-----0--------7-----7--------7--------------0-----0-----0--0--
D|-----0-----0-----0--0--------------0-----------------------------------
A|-----------------------------------------------------------------------
E|--3-----------------------------------------------0-----------------0--



E|--3--------------------------------------
B|--0--3--0--3--1--------------------------
G|--0--------2-----2--------0-----0--------
D|-----------1-----------0-----0-----0-----
A|-----------------------------------------
E|--3-----------------3-----------------3--
http://www.guitartabcreator.com
Guitar Tab Creator is intended to store guitar tab created through the tool. It currently does not support in-line text editing. Any text you place in here will be lost. If you need to comment on your tab, please use the "Tab Notes" section located below.