Why So Serious

(/) Slide Up  (\) Slide Down  (h) Hammer On  (p) Pull Off  (b) Bend (r) Release (v) Vibrato

E|---------------------------------
B|---------------------------------
G|---------7-5---------------8-7---
D|---7-5---------7-5---8-7-------8-
A|---------------------------------
E|-0-----0-----0-----0-----0-------



E|---------------------------------
B|---------------------------------
G|---------7-5---------------5-4---
D|---7-5---------7-5---8-7-------5-
A|---------------------------------
E|-0-----0-----0-----0-----0-------



E|---------
B|---------
G|---------
D|---------
A|---------
E|-0-0-0-0-



E|---
B|---
G|---
D|---
A|---
E|-0-



E|-------
B|-------
G|-------
D|-------
A|-------
E|-0-0-0-



E|--------------------------
B|--------------------------
G|--------------------------
D|--------------------------
A|--------------------------
E|--0--0--0--0--7--5--8--7--
http://www.guitartabcreator.com
Guitar Tab Creator is intended to store guitar tab created through the tool. It currently does not support in-line text editing. Any text you place in here will be lost. If you need to comment on your tab, please use the "Tab Notes" section located below.