DSBM 1

(/) Slide Up  (\) Slide Down  (h) Hammer On  (p) Pull Off  (b) Bend (r) Release (v) Vibrato


E|--------------------
B|--------------------
G|--------4--------2--
D|-----5--------3-----
A|--7--------5--------
E|--------------------



E|--------------------------------------------
B|--------------------------------------------
G|----------9----------9---------7---------7--
D|------10---------10---------9---------9-----
A|--12---------12---------10--------10--------
E|--------------------------------------------


DS
http://www.guitartabcreator.com
Guitar Tab Creator is intended to store guitar tab created through the tool. It currently does not support in-line text editing. Any text you place in here will be lost. If you need to comment on your tab, please use the "Tab Notes" section located below.