Scylla

(/) Slide Up  (\) Slide Down  (h) Hammer On  (p) Pull Off  (b) Bend (r) Release (v) Vibrato


E|--------------------------------------------------------------------------------
B|--------------------------------------------------------------------------------
G|--14--12--16--12--17--16--14--12------------------------------------------------
D|------------------------------------------14--12--10--12--9--7--5--7--9--9--12--
A|--12--10--14--10--15--14--12--10--14--------------------------------------------
E|--------------------------------------12--12--10--8---10--7--5--3--5--7--8--10--



E|--12--|-----
B|--12--|-----
G|--12--|-----
D|--14--|-----
A|--12--|-----
E|--12--|-----
http://www.guitartabcreator.com
Guitar Tab Creator is intended to store guitar tab created through the tool. It currently does not support in-line text editing. Any text you place in here will be lost. If you need to comment on your tab, please use the "Tab Notes" section located below.