Freddie King - I Got the Same Old Blues

(/) Slide Up  (\) Slide Down  (h) Hammer On  (p) Pull Off  (b) Bend (r) Release (v) Vibrato


E|------------------11--13b15----------11--13b15--13b15----13--11--13b15----13b15--11-------
B|------13------13-----------------13--------------------------------------------------13v--
G|--12------12------------------------------------------------------------------------------
D|------------------------------------------------------------------------------------------
A|------------------------------------------------------------------------------------------
E|------------------------------------------------------------------------------------------



E|------11b12--13--11b12--------------11b12--13--11b12--
B|--13--------------------13--11--13--------------------
G|------------------------------------------------------
D|------------------------------------------------------
A|------------------------------------------------------
E|------------------------------------------------------
http://www.guitartabcreator.com
Guitar Tab Creator is intended to store guitar tab created through the tool. It currently does not support in-line text editing. Any text you place in here will be lost. If you need to comment on your tab, please use the "Tab Notes" section located below.