Grateful Dead - Eyes of the World (Live) Second Solo

(/) Slide Up  (\) Slide Down  (h) Hammer On  (p) Pull Off  (b) Bend (r) Release (v) Vibrato

E|------------------------------------------------------------------------------------------------
B|-------------------------------------------------------------------------------------------10---
G|---------------------------------9-11/13-11-9-11p9---------------------------------------9------
D|--------9-11p9----9h11p9----9h11-------------------11-12-9----12-9------9----9-12-9-9/11--------
A|-7-9h11--------11--------11--------------------------------12------9h12---12--------------------
E|------------------------------------------------------------------------------------------------



E|---------------------12-12-11----9-7/9-12-9-9-7---7-9p7---12-9-12-14-16-16-16-15-14-12------
B|-9-10-9---------9-12----------12----------------9-------9------------------------------14---
G|--------11-11\9-----------------------------------------------------------------------------
D|--------------------------------------------------------------------------------------------
A|--------------------------------------------------------------------------------------------
E|--------------------------------------------------------------------------------------------
http://www.guitartabcreator.com
Guitar Tab Creator is intended to store guitar tab created through the tool. It currently does not support in-line text editing. Any text you place in here will be lost. If you need to comment on your tab, please use the "Tab Notes" section located below.