War Of The Worlds

(/) Slide Up  (\) Slide Down  (h) Hammer On  (p) Pull Off  (b) Bend (r) Release (v) Vibrato


E|--------------------------------------------
B|--------------------------------------------
G|--------------------------------------------
D|-----7--------------8-----------------0--7--
A|--------8--7-----8-----8--7-----7-----0--7--
E|--7-----------7--------------7-----7--0--7--



E|--------------------------------------------------
B|--------------------------------------------------
G|--------------------------------------------------
D|-----7--------------8-----------------0--7--8--0--
A|--------8--7-----8-----8--7-----7-----0--7--8--0--
E|--7-----------7--------------7-----7--0--7--8--0--



E|--------------------------------------------------------------
B|--------------------------------------------------------------
G|--------------------------------------------------------------
D|-----7--------------8-----------------------------------------
A|--------8--7-----8-----8--7-----7-----2--2--2--1--1--1--0--0--
E|--7-----------7--------------7-----7--2--2--2--1--1--1--0--0--



E|--12--12--12--12--12--12--12--12--12--12--12--12--
B|--------------------------------------------------
G|--9---9---9---9---9---9---9---9---9---9---9---9---
D|--------------------------------------------------
A|--------------------------------------------------
E|--------------------------------------------------



E|-----------------------------------------------------
B|-----------------------------------------------------
G|-----------------------------------------------------
D|--2--3--3--4--4--5--0--2--0--5--0--3--0--5--4--3--2--
A|--2--3--3--4--4--5--0--2--0--5--0--3--0--5--4--3--2--
E|--2--3--3--4--4--5--0--2--0--5--0--3--0--5--4--3--2--



E|-----------------------------------------------------------------------------------
B|-----------------------------------------------------------------------------------
G|-----------------------------------------------------------------------------------
D|-----------------------------------------------------------------------------1--2--
A|--------------3--------------------3--------------------3--------------2--1--------
E|--1--2--1--2-----2--0--1--2--1--2-----2--0--1--2--1--2-----2--0--1--2--------------



E|--12--12--12--12--12--12--12--12--12--12--12--12--
B|--------------------------------------------------
G|--9---9---9---9---9---9---9---9---9---9---9---9---
D|--------------------------------------------------
A|--------------------------------------------------
E|--------------------------------------------------



E|--------------------------------------------------------------------------
B|--------------------------------------------------------------------------
G|--------------------------------------------------------------------------
D|--0--1--2--0--1--2--0--1--2--0--1--2--0--1--2--0--1--2--0--1--2--0--1--2--
A|--0--1--2--0--1--2--0--1--2--0--1--2--0--1--2--0--1--2--0--1--2--0--1--2--
E|--0--1--2--0--1--2--0--1--2--0--1--2--0--1--2--0--1--2--0--1--2--0--1--2--



E|-----------------------------------------------------------------------
B|-----------------------------------------------------------------------
G|-----------------------------------------------------------------------
D|-----7--------------8-----------------7--------------8-----------------
A|--------8--7-----8-----8--7-----7--------8--7-----8-----8--7-----7-----
E|--7-----------7--------------7-----7-----------7--------------7-----7--



E|-----------
B|-----------
G|-----------
D|--1--2--0--
A|--1--2--0--
E|--1--2--0--
http://www.guitartabcreator.com
Guitar Tab Creator is intended to store guitar tab created through the tool. It currently does not support in-line text editing. Any text you place in here will be lost. If you need to comment on your tab, please use the "Tab Notes" section located below.