Signal Hill-Floruit

(/) Slide Up  (\) Slide Down  (h) Hammer On  (p) Pull Off  (b) Bend (r) Release (v) Vibrato

play this 6 times
E|------------------------------
B|------------------------------
G|-----------------12-10--8-----
D|--7(h)10-13-13-------------10-
A|-------------------------------
E|-------------------------------




E|------------------------------------------
B|-----------------------------------
G|---------------12--12--13--13-12-8-----------
D|-7(h)10--13-13--------------------------------
A|----------------------------------------
E|-----------------------------------------solo from there
Guitar Tab Creator is intended to store guitar tab created through the tool. It currently does not support in-line text editing. Any text you place in here will be lost. If you need to comment on your tab, please use the "Tab Notes" section located below.