I Will Be Back One Day - Lord Huron

(/) Slide Up  (\) Slide Down  (h) Hammer On  (p) Pull Off  (b) Bend (r) Release (v) Vibrato


E|--10h12--12--10----------10--10h12--12--10---------------------------------------------
B|-----------------12--12---------------------12--10--10h12----------10--12--10----------
G|-----------------------------------------------------------12--12--------------12--12--
D|---------------------------------------------------------------------------------------
A|---------------------------------------------------------------------------------------
E|---------------------------------------------------------------------------------------



E|--10h12--12--10----------10--12--14--12--10---------------------------------------------
B|-----------------12--12----------------------12--10--10h12----------10--12--10----------
G|------------------------------------------------------------12--12--------------12--12--
D|----------------------------------------------------------------------------------------
A|----------------------------------------------------------------------------------------
E|----------------------------------------------------------------------------------------



E|-------------------------2----------------------------------------
B|--3h5--5--3--------3--5-----5--3----------------------0-----------
G|-------------4--4-----------------4--1\2--2--0--0--2-----2--0--0--
D|------------------------------------------------------------------
A|------------------------------------------------------------------
E|------------------------------------------------------------------
http://www.guitartabcreator.com
Guitar Tab Creator is intended to store guitar tab created through the tool. It currently does not support in-line text editing. Any text you place in here will be lost. If you need to comment on your tab, please use the "Tab Notes" section located below.