New Orleans is Sinking

(/) Slide Up  (\) Slide Down  (h) Hammer On  (p) Pull Off  (b) Bend (r) Release (v) Vibrato


E|---------------------------------------------------------------------------------
B|--3p0-----5-----3p0--------------------------------------------------0--0--3--5--
G|-------4-----4-------4p0--2--2p0-----------3--2p0--2--2p0-------2/4--------------
D|----------------------------------2p0----------------------2p0-------------------
A|---------------------------------------------------------------------------------
E|---------------------------------------------------------------------------------



E|--12\4--------------------------12\4--------------------5b7--5b7--3--
B|--------0--3p0--5p0--3p0--------------0--3p0--5p0--3p0---------------
G|--------------------------2br0---------------------------------------
D|---------------------------------------------------------------------
A|---------------------------------------------------------------------
E|---------------------------------------------------------------------
http://www.guitartabcreator.com
Guitar Tab Creator is intended to store guitar tab created through the tool. It currently does not support in-line text editing. Any text you place in here will be lost. If you need to comment on your tab, please use the "Tab Notes" section located below.