composition 1

(/) Slide Up  (\) Slide Down  (h) Hammer On  (p) Pull Off  (b) Bend (r) Release (v) Vibrato


E|--------0------------------------------------------------------------------------------------
B|-------------------0----------0--------------------------------------------------------------
G|--6----------8-------------------------------------------------------------------------------
D|------------------------4-----------6-----2-----2-----4/6--4-----2-----1-----2/4--4-----4/6--
A|------------------------------------4--0-----0--0--0-------0--0-----0--2--2-------4--4-------
E|--5--5-----5/7--7-----7\4--4-----4-----------------------------------------------------------



E|--------0-------------------------0-----------------------0-----------------------0--
B|--------------------0----------------------0--------0-----------------------------0--
G|--6-----------6-----------4h6--------6--------8-----------------8-----8-----8--------
D|-------------------------------------------------------------------------------------
A|-------------------------------------------------------------------------------------
E|--5--5-----5--5--5-----5--5----5--------5-----7--7-----7-----7-----7-----7-----7-----
http://www.guitartabcreator.com
Guitar Tab Creator is intended to store guitar tab created through the tool. It currently does not support in-line text editing. Any text you place in here will be lost. If you need to comment on your tab, please use the "Tab Notes" section located below.