Dust of Life

(/) Slide Up  (\) Slide Down  (h) Hammer On  (p) Pull Off  (b) Bend (r) Release (v) Vibrato
E|------------|-------------------------------------------|---------12-------------12--13------|--
B|------------|---------10--------------------------------|-------------13-----------------13--|--
G|--9--10--7--|--9--10------9--10--8--7------7--8--7------|--7--10----------7--10--------------|--
D|------------|--------------------------10-----------10--|------------------------------------|--
A|------------|-------------------------------------------|------------------------------------|--
E|------------|-------------------------------------------|------------------------------------|--



E|-10----------------------------|----12-------15----------|-------12------------|----------|-
B|----11-------------------------|-10----13-13----13-13-13-|-10-13----13-10-13\8-|----------|-
G|-------12----------------------|-------------------------|---------------------|-8h10p8p7-|-
D|----------13-12-12h13p12-10-12-|-------------------------|---------------------|----------|-
A|-------------------------------|-------------------------|---------------------|----------|-
E|-------------------------------|-------------------------|---------------------|----------|-



E|-------------------|----12----10----12----15-|-17-17-17-13-15-17-12-13-15-|-
B|-------------------|-10----13----10----13----|----------------------------|-
G|-7h8p5-5h7p5p4-7-5-|-------------------------|----------------------------|-
D|-------------------|-------------------------|----------------------------|-
A|-------------------|-------------------------|----------------------------|-
E|-------------------|-------------------------|----------------------------|-



E|-15-15-15-15-11-11-8-8-8----------------------|------------------------------|-
B|-------------------------11-11-11-8-8-8-------|------------------------------|-
G|----------------------------------------8-8-8-|-8-8-8-8-10-9-7-10-9-7-10-9-7-|-
D|----------------------------------------------|------------------------------|-
A|----------------------------------------------|------------------------------|-
E|----------------------------------------------|------------------------------|-



E|-------------|-------------|-------------|-----------|-----------|-----------------|-
B|-------------|-------------|-------------|-----------|-----------|-----------------|-
G|-10-7-10-9-7-|-10-7-10-9-7-|-10-7-10-9-7-|-8-5-8-7-5-|-8-5-8-7-5-|-5-5-5-5-5-8-7-5-|-
D|-------------|-------------|-------------|-----------|-----------|-----------------|-
A|-------------|-------------|-------------|-----------|-----------|-----------------|-
E|-------------|-------------|-------------|-----------|-----------|-----------------|-



E|-------------------------|-----------|------------|------------|----------------10-8----|-
B|-------------------------|---10-8----|------------|------------|--------------8------11-|-
G|-5-5-5-8-7-5-5-5-8-7-5-7-|-7------10-|-7-9-10-9-7-|-10h9p7-6---|----------7-8-----------|-
D|-------------------------|-----------|------------|----------7-|-------10---------------|-
A|-------------------------|-----------|------------|------------|----10------------------|-
E|-------------------------|-----------|------------|------------|-11---------------------|-



E|------|-----------|----------|-12----13-12----13-12----10----12-11-------|-
B|-8-10-|---8-10-11-|-10-11-13-|----10-------10-------13----13-------13----|-
G|------|-8---------|----------|----------------------------------------12-|-
D|------|-----------|----------|-------------------------------------------|-
A|------|-----------|----------|-------------------------------------------|-
E|------|-----------|----------|-------------------------------------------|-



E|-----------------------|-----------------------|--------------------|-
B|-----------------------|-----------------------|--------------------|-
G|-8-10-8-7-8------------|-7-8-7-5-7-8-7-5-----7-|-7-8-7-5-7----------|-
D|------------10----8-10-|-----------------5-8---|-----------5-8-9-10-|-
A|---------------10------|-----------------------|--------------------|-
E|-----------------------|-----------------------|--------------------|-



E|---------------|--
B|------------8--|--
G|--7--9--10-----|--
D|---------------|--
A|---------------|--
E|---------------|--



E|--------------------
B|--------------------
G|--7--7--10--10--10--
D|--------------------
A|--------------------
E|--------------------
http://www.guitartabcreator.com
Guitar Tab Creator is intended to store guitar tab created through the tool. It currently does not support in-line text editing. Any text you place in here will be lost. If you need to comment on your tab, please use the "Tab Notes" section located below.