Golden Gate HB Solo

(/) Slide Up  (\) Slide Down  (h) Hammer On  (p) Pull Off  (b) Bend (r) Release (v) Vibrato

E|-------------------------------------------------------------------------
B|-----------------------------------------------13/15--13-----------------
G|-------------------------------------------12----------------------------
D|-------------12--12h14--12----------13h14-----------------12--10---------
A|--10/12--15-----------------15--12--------------------------------12p10--
E|-------------------------------------------------------------------------



E|-----------------------------------------------------------------------
B|-----------------------------------------------------------------------
G|-------------------------------------------12--14/16--14--12/14--12\9--
D|-------------12--12h14--12----------13h14------------------------------
A|--10/12--15-----------------15--12-------------------------------------
E|-----------------------------------------------------------------------
http://www.guitartabcreator.com
Guitar Tab Creator is intended to store guitar tab created through the tool. It currently does not support in-line text editing. Any text you place in here will be lost. If you need to comment on your tab, please use the "Tab Notes" section located below.