WITHIN THE MOONLIT SHADOWS TAB (TO THE "WITHIN THE MOONLIT SHADOWS: RHYTHM RIFFS" RECORDING)

0:18

E|------------------------------------------------------------------------
B|------------------------------------------------------------------------
G|------------------------------------------------------------------------
D|--10---10-10-10---10-13-13---13-13-13---13-13-8---8-8-8---8-3-3---3-3-3-
A|--10---10-10-10---10-13-13---13-13-13---13-13-8---8-8-8---8-3-3---3-3-3-
D|--10---10-10-10---10-13-13---13-13-13---13-13-8---8-8-8---8-3-3---3-3-3-

E|-----------------------------------------------------------------------------
B|-----------------------------------------------------------------------------
G|-----------------------------------------------------------------------------
D|--3/10-10---10-10-10---10-13-13---13-13-13---13-13-8---8-8-8---8/7-3---3-3-3-
A|--3/10-10---10-10-10---10-13-13---13-13-13---13-13-8---8-8-8---8/7-3---3-3-3-
D|--3/10-10---10-10-10---10-13-13---13-13-13---13-13-8---8-8-8---8/7-3---3-3-3- x2

0:51

E|---------------------------------------------------------------------------------
B|---------------------------------------------------------------------------------
G|--5--------------5-----3--5-------5-----3--5---33333-5-----3--5-------5-----3--5-
D|--5--------------5-----3--5-------5-----3--5---33333-5-----3--5-------5-----3--5-
A|--3--------------3-----1--3-------3-----1--3---11111-3-----1--3-------3-----1--3-
D|--(let it ring)------------------------------------------------------------------

1:14 (Fast strumming)

E|-----------------------------------------
B|-----------------------------------------
G|-----------------------------------------
D|-----------------------------------------
A|--2-323232--4-545454--5-656565--3-434343-
D|--2-222222--4-444444--5-555555--3-333333- x4

1:38 (tremolo)

E|----------------------------------
B|----------------------------------
G|----------------------------------
D|----------------------------------
A|--1---1---1---1---3---3---3---3---
D|----3---3---3---3---5---5---5---5- x4

2:01 (listen to recording for when to hit the notes, then proceed with strumming)

E|-------------------------------------------
B|-----------------------------------BASS----
G|--5------3---------------------------------
D|--5------3---------------------------------
A|--3------1---------------------------------
D|-----------------------------------5-----3-

2:25 (tremolo)

E|---------------------------------------------------
B|---------------------------------------------------
G|---------------------------------------------------
D|---------------------------------------------------
A|---------------------------------------------------
D|--3-----4-3-4-3-4-3-4-3-----5-----6-5-6-5-6-5-6-5-- x4

2:49

E|--------------------------------------------------
B|--------------------------------------------------
G|--5----------3-----------5------------3-----------
D|--5----------3-----3-----5------------3-----3-----
A|--3----------1-----3-----3------------1-----3-----
D|-------------------3------------------------3-----

2:59 (tremolo)

E|----------------------
B|----------------------
G|----------------------
D|--------1-------------
A|--3-----------1-------
D|--------------------3- x6

3:35 (constant downpicking, unsure of bass part, those are "10"s, not "1" and "0")

E|-----------------------------------------------------------------------------------
B|-----------------------------------------------------------------------------------
G|-----------------------------------------------------------------------------------
D|--10-10-12-12-13-13-10-10-13-13-15-15-17-17-13-13-8-8-101012128-8-1010101010101010-
A|--10-10-10-10-10-10-10-10-13-13-13-13-13-13-13-13-8-8-8-8-8-8-8-8-8-8-8-8-8-8-8-8--
D|----------------------------------------------------------------------------------- x4

3:59 (constant downpicking, unsure of bass part, those are "10"s, not "1" and "0")

E|----------------------------------------------------------------------------------
B|----------------------------------------------------------------------------------
G|----------------------------------------------------------------------------------
D|--10-10-12-12-13-13-10-10-13-13-15-15-17-17-13-13-8-8-101012128-8-10108-8-7-7-8-8-
A|--10-10-10-10-10-10-10-10-13-13-13-13-13-13-13-13-8-8-8-8-8-8-8-8-8-8-8-8-8-8-8-8-
D|---------------------------------------------------------------------------------- x4

4:22

E|-------------------------------------------------------------------------------
B|-------------------------------------------------------------------------------
G|-------------------------------------------------------------------------------
D|--8h10---10---10---10-10-10/13---13---13-13-13-6/8---8---8-8-8-1/3---3---1/3/1-
A|--8h10---10---10---10-10-10/13---13---13-13-13-6/8---8---8-8-8-1/3---3---1/3/1-
D|--8h10---10---10---10-10-10/13---13---13-13-13-6/8---8---8-8-8-1/3---3---1/3/1- x4

4:47

E|------------------------------------------------------------------
B|------------------------------------------------------------------
G|------------------------------------------------------------------
D|--10-----10/13-13-6-8-----1-3-1-0-10-----10/13-13-6-8-----3-1-0-1-
A|--10-----10/13-13-6-8-----1-3-1-0-10-----10/13-13-6-8-----3-1-0-1-
D|--10-----10/13-13-6-8-----1-3-1-0-10-----10/13-13-6-8-----3-1-0-1- x2
. . .
5:10

E|--------------------------------------------------------
B|--------------------------------------------------------
G|------7--------------------------7----------------------
D|--0---7---3-5---0-1---6-8--3-0---7---3-5---0-1---1------
A|--0---5---3-5---0-1---6-8--3-0---5---3-5---0-1---1------
D|--0-------3-5---0-1---6-8--3-0-------3-5---0-1---1-1/13-
^ ^ . ^ (Gradual bend up)

E|--------------------------------------------------------
B|--------------------------------------------------------
G|---------------------------------7----------------------
D|--0-------3-5---0-1---6-8--3-0---7---3-5---0-1---1------
A|--0-------3-5---0-1---6-8--3-0---5---3-5---0-1---1------
D|--0-------3-5---0-1---6-8--3-0-------3-5---0-1---1-1/13- x2
^ . ^ (Gradual bend up)

E|--------------------------------------------------------
B|--------------------------------------------------------
G|------7--------------------------7----------------------
D|--0---7---3-5---0-1---6-8--3-0---7---3-5---0-1---1------
A|--0---5---3-5---0-1---6-8--3-0---5---3-5---0-1---1------
D|--0-------3-5---0-1---6-8--3-0-------3-5---0-1---1-1/13-
^ ^ . ^ (Gradual bend up)

5:59

E|----------------------------------------------------------------------
B|----------------------------------------------------------------------
G|----------------------------------------------------------------------
D|--2---2---5-7-7-2-4---4/7-7h9-9-5-2---2---5-7-7-2-4---4-----4---4h5p4-
A|--2---2---5-7-7-2-4---4/7-7h9-9-5-2---2---5-7-7-2-4---4-4h5---5-------
D|--2---2---5-7-7-2-4---4/7-7h9-9-5-2---2---5-7-7-2-4---4--------------- x2

6:22

E|-------------------------------------------------------------------------------------------
B|-------------------------------------------------------------------------------------------
G|-------------------------------------------------------------------------------------------
D|--2--2-2-2-2-222-2-2-2-2-5--5-5-5h6-6--6-6-6-6-4--4-4-4-4-4--4-4-4-4-3--3-3-3-3-3--3-3-3-3-
A|--2--2-2-2-2-222-2-2-2-2-5--5-5-5h6-6--6-6-6-6-4--4-4-4-4-4--4-4-4-4-4--4-4-4-4-4--4-4-4-4-
D|--2--2-2-2-2-222-2-2-2-2-5--5-5-5h6-6--6-6-6-6-4--4-4-4-4-4--4-4-4-4-4--4-4-4-4-4--4-4-4-4-
. . . . . ... . . . .
E|-----------------------------------------------------------------------------------------
B|-----------------------------------------------------------------------------------------
G|-----------------------------------------------------------------------------------------
D|--2--2-2-2-2-222-2-2-2-2-5--5-5-5h6-6--6-6-6/9--9-9-9-9-9--9-9-9-9-8--8-8-8-8-8--8-8-8-8-
A|--2--2-2-2-2-222-2-2-2-2-5--5-5-5h6-6--6-6-6/9--9-9-9-9-9--9-9-9-9-9--9-9-9-9-9--9-9-9-9-
D|--2--2-2-2-2-222-2-2-2-2-5--5-5-5h6-6--6-6-6/9--9-9-9-9-9--9-9-9-9-9--9-9-9-9-9--9-9-9-9-
. . . . . ... . . . .
E|-------------------------------------------------------------------------------------------
B|-------------------------------------------------------------------------------------------
G|-------------------------------------------------------------------------------------------
D|--2--2-2-2-2-222-2-2-2-2-5--5-5-5h6-6--6-6-6-6-4--4-4-4-4-4--4-4-4-4-3--3-3-3-3-3--3-3-3-3-
A|--2--2-2-2-2-222-2-2-2-2-5--5-5-5h6-6--6-6-6-6-4--4-4-4-4-4--4-4-4-4-4--4-4-4-4-4--4-4-4-4-
D|--2--2-2-2-2-222-2-2-2-2-5--5-5-5h6-6--6-6-6-6-4--4-4-4-4-4--4-4-4-4-4--4-4-4-4-4--4-4-4-4-
. . . . . ... . . . .
E|-----------------------------------------------------------------------------------------
B|-----------------------------------------------------------------------------------------
G|-----------------------------------------------------------------------------------------
D|--2--2-2-2-2-222-2-2-2-2-5--5-5-5h6-6--6-6-6/9--9-9-9-9-9--9-9-9-9-8--8-8-8-8-8--8-8-8-8-
A|--2--2-2-2-2-222-2-2-2-2-5--5-5-5h6-6--6-6-6/9--9-9-9-9-9--9-9-9-9-9--9-9-9-9-9--9-9-9-9-
D|--2--2-2-2-2-222-2-2-2-2-5--5-5-5h6-6--6-6-6/9--9-9-9-9-9--9-9-9-9-9--9-9-9-9-9--9-9-9-9-
. . . . . ... . . . .
E|-----------------------------------------------------------------------------------------------
B|-----------------------------------------------------------------------------------------------
G|-----------------------------------------------------------------------------------------------
D|--11---11-11-11-11-11---11-11-11-11-9--9-9-9-9-8--8-8-8-8-9-9--9-9-9-9-9--9-9-9-9-8--8-8-8-8-8-
A|--9----9--9--9--9--9----9--9--9--9--9--9-9-9-9-9--9-9-9-9-9-9--9-9-9-9-9--9-9-9-9-9--9-9-9-9-9-
D|--9----9--9--9--9--9----9--9--9--9--9--9-9-9-9-9--9-9-9-9-9-9--9-9-9-9-9--9-9-9-9-9--9-9-9-9-9-

E|------------------------------------------------------------
B|------------------------------------------------------------
G|------------------------------------------------------------
D|--8-8-8-8-11-11-11-11-11-11-11-11-11-11-11-11-9-9-9-9-9-9---
A|--9-9-9-9-9--9--9--9--9--9--9--9--9--9--9--9--9-9-9-9-9-9---
D|--9-9-9-9-9--9--9--9--9--9--9--9--9--9--9--9--9-9-9-9-9-9-4-
^(Gradual bend up)
7:11

E|--------------------------------------------------------------------------------
B|--------------------------------------------------------------------------------
G|--------------------------------------------------------------------------------
D|--2---2-2---2---2-2--5--5-5-5--6--6-6-6--4--4-4-4--4--4-4-4--3--3-3-3--3--3-3-3-
A|--2---2-2---2---2-2--5--5-5-5--6--6-6-6--4--4-4-4--4--4-4-4--4--4-4-4--4--4-4-4-
D|--2---2-2---2---2-2--5--5-5-5--6--6-6-6--4--4-4-4--4--4-4-4--4--4-4-4--4--4-4-4-

E|---------------------------------------------------------------
B|---------------------------------------------------------------
G|---------------------------------------------------------------
D|--2---2-2---2---2-2--5--5-5-5--6--6-6-6--9--9-9-9--9--9-9-9--8-
A|--2---2-2---2---2-2--5--5-5-5--6--6-6-6--9--9-9-9--9--9-9-9--9-
D|--2---2-2---2---2-2--5--5-5-5--6--6-6-6--9--9-9-9--9--9-9-9--9-

7:28 (Constant Downpicking, listen to recording for chord changes)

E|-----------------------------------------------------------------------
B|-----------------------------------------------------------------------
G|-----------------------------------------------------------------------
D|--2------5---6---------------------------------------------------------
A|--2------5---6---2---42---42---42---42---5---2---42---42---42---42---5-
D|--2------5---6---4---44---44---44---44---4---4---44---44---44---44---4-

E|------------------------------------------------------------------------
B|------------------------------------------------------------------------
G|------------------------------------------------------------------------
D|--2------5---6----------------------------------------------------------
A|--2------5---6---7---97---97---97---97---10--7---97---97---97---97---10-
D|--2------5---6---9---99---99---99---99---9---9---99---99---99---99---9--

E|-----------------------------------------------------------------------
B|-----------------------------------------------------------------------
G|-----------------------------------------------------------------------
D|--2------5---6---------------------------------------------------------
A|--2------5---6---2---42---42---42---42---5---2---42---42---42---42---5-
D|--2------5---6---4---44---44---44---44---4---4---44---44---44---44---4-

E|------------------------------------------------------------------------
B|------------------------------------------------------------------------
G|------------------------------------------------------------------------
D|--2------5---6----------------------------------------------------------
A|--2------5---6---7---97---97---97---97---10--7---97---97---97---97---12-
D|--2------5---6---9---99---99---99---99---9---9---99---99---99---99---9--
(let ring)

8:20 (Bass unsure, guitar lead displayed) (End on this)

E|-------------------------------------------------- ---
B|-------------------------------------------------- ---
G|--------------------------------------------2----- ---
D|--2-5-4-0-5-4-2-5-4-0-5-4-2-5-4-0-5-4-2-5-4---5-4- -2-
A|-------------------------------------------------- -2-
D|-------------------------------------------------- x4 -2-
Guitar Tab Creator is intended to store guitar tab created through the tool. It currently does not support in-line text editing. Any text you place in here will be lost. If you need to comment on your tab, please use the "Tab Notes" section located below.