MONOLITH TABS

FIRST FAST RIFF SEQUENCE (single notes are tremolo'ed)

e)------------------ ------------------------------------|
B)------------------ ------------------------------------|
G)------------------ ------------------------------------|
D)------------------ -7-7--5-5--3-3--7-7--7-7------------|
A)------------------ -7-7--5-5--3-3--7-7--7-7------------|
D)-7-9-10-7-5-7-3-5- x8 -7-7--5-5--3-3--7-7--7-7--9-10-3-5--| x2

e)----------------------------------------------|
B)----------------------------------------------|
G)----------------------------------------------|
D)-7-7-0-7-7-0-5-5-0-3-3-0-7-7-0-7-7-0----------|
A)-7-7-0-7-7-0-5-5-0-3-3-0-7-7-0-7-7-0----------|
D)-7-7-0-7-7-0-5-5-0-3-3-0-7-7-0-7-7-0-9-10-3-5-| x2

CHORUS (Low End) (Tremolo)

e)--------------------------------------------|
B)--------------------------------------------|
G)--------------------------------------------|
D)--------------------------------------------|
A)-------2-3-2------------2-3-2-3-5-----------|
D)--2----------5---0---2------------5--7-0----|

----------------------------------------------|
----------------------------------------------|
----------------------------------------------|
----------------------------------------------|
------2-3-2------------2-3-2-3-5--------------|
-2----------5---0---2------------5-7-0-7------|

CHORUS PART 2 (Tremolo) (numbers grouped together are double digit frets)

e)----------------------------------------------| x2 (listen to recording
B)----------------------------------------------| for how to pick each
G)----------------------------------------------| repetition)
D)----------------------------------------------|
A)----------------------------------------------|
D)-0--7-5--7-8--10-7---0--7-5--7-8-10-8-7-3-232-|

GROOVE (Q=10) (grouped numbers ARE NOT double digit frets)
1st & Second Ending
e)------------------------------------------------|-------------------------|
B)------------------------------------------------|-------------------------|
G)------------------------------------------------|-------------------------|
D)-5-5-555-8-8-888-333333/QQQ/888-5-5-555-8-8-888-|-333333222111------------|
A)-5-5-555-8-8-888-333333/QQQ/888-5-5-555-8-8-888-|-333333222111------------|
D)-5-5-555-8-8-888-333333/QQQ/888-5-5-555-8-8-888-|-333333222111------------|
... ... ... ...

GROOVE Second Ending Going Into First Fast Riff Sequence

e)--------------|
B)--------------|
G)--------------|
D)-333333555666-|
A)-333333555666-|
D)-333333555666-|

SOLO RIFF (Tremolo) (Q=10, X=11, Y=13)

e)------------------------------------------------------------------------|
B)------------------------------------------------------------------------|
G)------------------------------------------------------------------------|
D)------------------------------------------------------------------------|
A)-8-------Q---6---X-------Q---6---8-------Q---6---4-----6-3-------8------|
D)------------------------------------------------------------------------|

----------------------------------------------------------|
----------------------------------------------------------|
----------------------------------------------------------|
--------------------------------------------------------3-|
-Q---6--YX-------Q---6--Y8-------Q---6--4-----6-3-------3-|
----------------------------------------------------8-6-3-|

1st INTRICATE RIFF BACKUP (Tremolo) (Q=10, X=11, A=13, B=16)

e)---------------------------------------------------------------------|
B)---------------------------------------------------------------------|
G)---------------------------------------------------------------------|
D)---------------------------------------------------------------------|
A)------Q--------Q-------8--------8-------Q--------Q-------5--------5--|
D)-Q-AQ--Q-AQ-AQ--Q-8-X8--8-X8-X8--8-Q-AQ--Q-AQ-AQ--Q-5-85--5-85-85--5-|

e)---------------------------------------------------------------------|
B)---------------------------------------------------------------------|
G)---------------------------------------------------------------------|
D)---------------------------------------------------------------------|
A)------8--------8-------A--------A-------8--------8-------5--------5--|
D)-8-X8--8-X8-X8--8-A-BA--A-BA-BA--A-8-X8--8-X8-X8--8-5-85--5-85-85--5-|

Heavy Tremolo Bridge (Repeat as many times as necessary)

e)------------
B)------------
G)------------
D)------------
A)------------
D)-11-10-11-8-

3RD Intricate Riff (all tremolo except chords) (Q=10)

e)-----------------------------------------------------------------|
B)-----------------------------------------------------------------|
G)-----------------------------------------------------------------|
D)-7---------------7---------------7-------------------------------|
A)-7---------------7---------------7-------------------------------|
D)-7-7-5-7-8-7-5-7-7-7-5-7-8-Q-8-7-7-7-5-7-8-7-5-7-5-3-2-3-2-0-3-0-| x2
. . .
(let palm mute ring for a second)

Ending Slow Section Backup

e)---------|
B)---------|
G)---------|
D)-9-7-5-4-|
A)-9-7-5-4-|
D)-9-7-5-4-| x2
(let each chord ring)

(xxx=triplet)
e)--------------------------------------------------|
B)--------------------------------------------------|
G)--------------------------------------------------|
D)-9------------7------------5------------4---------|
A)-9------------7------------5------------4---------|
D)-9-999-999----7-777-777----5-555-555----4-444-444-|
|_________| |_________| |_________| |_________|
x2 x2 x2 x2

e)---------------------------------------------------|
B)---------------------------------------------------|
G)---------------------------------------------------|
D)-9-9-9-9-9-9-7-7-7-9-9-9-5-5-5-9-9-9-4-4-4-0-0-4-2-|
A)-9-9-9-9-9-9-7-7-7-9-9-9-5-5-5-9-9-9-4-4-4-0-0-4-2-|
D)-9-9-9-9-9-9-7-7-7-9-9-9-5-5-5-9-9-9-4-4-4-0-0-4-2-|
. . . . . . . . . . . . . . . ^(let ring for a second)
(into slow Chorus Riff 1)
Guitar Tab Creator is intended to store guitar tab created through the tool. It currently does not support in-line text editing. Any text you place in here will be lost. If you need to comment on your tab, please use the "Tab Notes" section located below.