The Harbinger

(/) Slide Up  (\) Slide Down  (h) Hammer On  (p) Pull Off  (b) Bend (r) Release (v) Vibrato 
(^) Pinch Harmonic

0:00 BASS INTRO

G|-----------------------------------------------------------------
D|-----------------------------------------------------------------
A|-------------3-0-3/5-5---5---5-------------------3---------------
D|-0---0---0---------------------0-3/5-5---5---5-0---5-3---3-5-3-0-

G|-----------------------------------------------------------------
D|-----------------------------------------------------------------
A|-------------3-0-3/5-5---5/8-8-------------------3---------------
D|-0---0---0---------------------0-3/5-5---5---5-0---5-3---3-5-3-0-

0:18

E|-----------------------------------------------------------------
B|-----------------------------------------------------------------
G|-------------5---5/7-7---7---7-----------------------------------
D|-0---0---0---5---5/7-7---7---7-0-3/5-5---5---5-0-3-5-3---3-5-3-0-
A|-0---0---0---3-0-3/5-5---5---5-0-3/5-5---5---5-0-3-5-3---3-5-3-0-
D|-0---0---0---------------------0-3/5-5---5---5-0---5-3---3-5-3-0-

E|-------------------------------------------------------------------
B|-------------------------------------------------------------------
G|-------------5---5/7-7---7/10-10-----------------------------------
D|-0---0---0---5---5/7-7---7/10-10-0-3/5-5---5---5-0-3-5-3---3-5-3-0-
A|-0---0---0---3-0-3/5-5---5/8--8--0-3/5-5---5---5-0-3-5-3---3-5-3-0-
D|-0---0---0-----------------------0-3/5-5---5---5-0---5-3---3-5-3-0- x4

0:52 LEAD GUITAR (Comes in on 3rd repetition of previous riff)
(tremolo)
E|-----------------------------------------------------------------
B|-----------------------------------------------------------------
G|-----------------7-------------------5---7---5---10--8---7---5---
D|-0---7---10--7-------10--7---0---5-------------------------------
A|-----------------------------------------------------------------
D|----------------------------------------------------------------- x3

4th REPETITION
E|-------------------------------------------------------------
B|-------------------------------------------------------------
G|-----------------7-------------------------------------------
D|-0---7---10--7-------10--7---0---5---7---5---3---2-----------
A|-----------------------------------------------------3---5^--
D|-------------------------------------------------------------

1:27 CLEAN GUITAR

E|-----------------------------------------------------------------
B|-----------------------------------------------------------------
G|---------4-------------------------------2p0---------------------
D|-----2-------2-------2-------5-------0-------4p0-----0-------5---
A|---2---2---2-------2---2---5---5---0---0-----------0---0---5---5-
D|-2---------------2-------5-------0---------------0-------5------- x4

2:00

E|-------------------------------------------------------|-------------------
B|-------------------------------------------------------|-------------------
G|-------------------------------------------------------|-------------------
D|-----0h2-0h2---5-5---------5-----0h2-0---4-4---------4-|-------------------
A|-0h2-----0h2---2-2---------2-0h2-----0---0-0---------0-|-2---0h2p0---------
D|---------0h2---2-2---------2---------0---0-0---------0-|-----------5---4--- x2
|____________________________________________________|
x2
Guitar Tab Creator is intended to store guitar tab created through the tool. It currently does not support in-line text editing. Any text you place in here will be lost. If you need to comment on your tab, please use the "Tab Notes" section located below.