Carbon Haze Of A Dying Sun

(/) Slide Up  (\) Slide Down  (h) Hammer On  (p) Pull Off  (b) Bend (r) Release (v) Vibrato

0:00
(let ring)
E|-------1---------------|-------6------------------------------------------------
B|-------3---------3-----|-------8-------8----------------------------------------
G|-------2-----------2---|-------7---------7--------------------------------------
D|-0-----0-------------0-|-5-----5-----------5---8-7-8/10-10---10---8---7-------3-
A|-0-----0---------------|-5-----5---------------8-7-8/10-10---10---8---7-------3-
D|-0-----0---------------|-5-----5---------------8-7-8/10-10---10---8---7-------3- x4
|______________________|
x2

1:10

E|-----------------------------------------------------------------
B|-----------------------------------------------------------------
G|-------------------------------------------------5---5/7---------
D|-0---0-0-0---0-8-8---8-5-5---5-0-0---0-0-0---0-0-5---5/7-5---5-5-
A|-0---0-0-0---0-8-8---8-5-5---5-0-0---0-0-0---0-0-3---3/5-5---5-5-
D|-0---0-0-0---0-8-8---8-5-5---5-0-0---0-0-0---0-0---------5---5-5- x2

1:27
(tremolo)
E|------------------------------------------------------------
B|------------------------------------------------------------
G|------------------------------------------------------------
D|------------------------------------------------------------
A|----------------------------------------------3--5----------
D|-0-------3---0---8-------5-------0--3-0-5--7--------5------- x4

2:00 LEAD GUITAR (Let all notes ring)

E|---------1---------------1---------------1-----------------------
B|-----3-----3-----------1---3---------3-----3-------------------3-
G|---2---2-----2-------0-------3-----2---2-----2-------0-------0---
D|-0-------------0---2-----------3-0-------------0---2-------0-----
A|-----------------3-------------------------------3-----3-1-------
D|----------------------------------------------------------------- x4

2:00 BACKUP GUITAR (not the same as bass)

E|-----------------------------------------------------------------
B|-----------------------------------------------------------------
G|-----------------------------------------------------------------
D|-0---------------5b------3v------0---------------7b------5v------
A|-0-------------------------------0-------------------------------
D|-0-------------------------------0------------------------------- x4

2:35

E|-----------------------------------------------------------------
B|-----------------------------------------------------------------
G|-------------------------------------------------5---5/7---------
D|-0---0-0-0---0-8-8---8-5-5---5-0-0---0-0-0---0-0-5---5/7-5---5-5-
A|-0---0-0-0---0-8-8---8-5-5---5-0-0---0-0-0---0-0-3---3/5-5---5-5-
D|-0---0-0-0---0-8-8---8-5-5---5-0-0---0-0-0---0-0---------5---5-5-

(tremolo)
E|------------------------------------------------------------
B|------------------------------------------------------------
G|------------------------------------------------------------
D|------------------------------------------------------------
A|----------------------------------------------3--5----------
D|-0-------3---0---8-------5-------0--3-0-5--7--------5-------

2:52

E|-----------------------------------------------------
B|----------------------3-----------------6--------8---
G|--------------------3-----------------7---7----9---9-
D|-0----------------3-------0---------8-------10-------
A|-0------------------------0--------------------------
D|-0------------------------0-------------------------- x3

E|--------------------------------------------------
B|----------------------3-----------------6---------
G|--------------------3-----------------7---7-------
D|-0----------------3-------0---------8-------5---3-
A|-0------------------------0-----------------5---3-
D|-0------------------------0-----------------5---3-

3:26
(tremolo)
E|-----------------------------------------------------------------
B|-----------------------------------------------------------------
G|-----------------------------------------------------------------
D|-----------------------------------------------------------------
A|-------------------------3-5-------------3-5---------------------
D|-0-------5-7-3-5-0---5-7-----5---0---5-7-----5---7-5-3-5-3---2--- x2

3:42
(tremolo)
E|-----------------------------------------------------------------
B|-----------------------------------------------------------------
G|-----------------------------------------------------------------
D|-----------------------------------------------------------------
A|-------3-5-------------3-5-------------3-5-----------------------
D|-0-5-7-----5-7-5-0-5-7-----5-78750-5-7-----5-7-5-8-7-5-7-5-3-2-3- x2

3:58
(tremolo)
E|-----------------------------------------------------------------
B|-----------------------------------------------------------------
G|-----------------------------------------------------------------
D|-----------------------------------------------------------------
A|-2---2-4-5-4-0-2---0-2-4-5-7-5-4-2---2-4-5-4-0-2---2---2---0---0-
D|---4-------------5-----------------4-------------5---5---4---4--- x3

E|------------------------------------------------------------------
B|------------------------------------------------------------------
G|------------------------------------------------------------------
D|-------------------------------------------------5555444422224444-
A|-2---2-4-5-4-0-2---0-2-4-5-7-5-4-2---2-4-5-4-0-2-5555444422224444-
D|---4-------------5-----------------4-------------5555444422224444-

4:30

E|-----------------------------------------------------------------
B|-----------------------------------------------------------------
G|-------------------------------------------------5---5/7---------
D|-0---0-0-0---0-8-8---8-5-5---5-0-0---0-0-0---0-0-5---5/7-5---5-5-
A|-0---0-0-0---0-8-8---8-5-5---5-0-0---0-0-0---0-0-3---3/5-5---5-5-
D|-0---0-0-0---0-8-8---8-5-5---5-0-0---0-0-0---0-0---------5---5-5-

(tremolo)
E|------------------------------------------------------------
B|------------------------------------------------------------
G|------------------------------------------------------------
D|------------------------------------------------------------
A|----------------------------------------------3--5----------
D|-0-------3---0---8-------5-------0--3-0-5--7--------5-------

4:47 LEAD GUITAR (Let all notes ring)

E|---------1---------------1---------------1-----------------------
B|-----3-----3-----------1---3---------3-----3-------------------3-
G|---2---2-----2-------0-------3-----2---2-----2-------0-------0---
D|-0-------------0---2-----------3-0-------------0---2-------0-----
A|-----------------3-------------------------------3-----3-1-------
D|----------------------------------------------------------------- x4

2:00 BACKUP GUITAR (not the same as bass)

E|-----------------------------------------------------------------
B|-----------------------------------------------------------------
G|-----------------------------------------------------------------
D|-0---------------5b------3v------0---------------7b------5v------
A|-0-------------------------------0-------------------------------
D|-0-------------------------------0------------------------------- x4

5:22

(let ring) (let ring)
E|-------1---------------|-------6------------------------------------------------
B|-------3---------3-----|-------8-------8----------------------------------------
G|-------2-----------2---|-------7---------7--------------------------------------
D|-0-----0-------------0-|-5-----5-----------5---8-7-8/10-10---10---8---7-------3-
A|-0-----0---------------|-5-----5---------------8-7-8/10-10---10---8---7-------3-
D|-0-----0---------------|-5-----5---------------8-7-8/10-10---10---8---7-------3- x3
|______________________|
x2

(let ring) Gradual Slow Down
E|-------1---------------|-------6-------------------------------------------------------|
B|-------3---------3-----|-------8-------8-----------------------------------------------|
G|-------2-----------2---|-------7---------7---------------------------------------------|
D|-0-----0-------------0-|-5-----5-----------5---8-7-8/10-10---10---8h10p8-7-------3---0-|
A|-0-----0---------------|-5-----5---------------8-7-8/10-10---10---8h10p8-7-------3---0-|
D|-0-----0---------------|-5-----5---------------8-7-8/10-10---10---8h10p8-7-------3---0-|
|______________________|
x2
Guitar Tab Creator is intended to store guitar tab created through the tool. It currently does not support in-line text editing. Any text you place in here will be lost. If you need to comment on your tab, please use the "Tab Notes" section located below.