Can't Hold Us

(/) Slide Up  (\) Slide Down  (h) Hammer On  (p) Pull Off  (b) Bend (r) Release (v) Vibrato

E|--7--7------7--7--
B|------------------
G|--9--9------9--9--
D|------------------
A|--7--7------7--7--
E|------------------



E|------------------
B|--7--8------8--8--
G|--7--7------7--7--
D|------------------
A|--5--5------5--5--
E|------------------



E|------------------
B|------------------
G|--7--7------7--7--
D|--9--9------9--9--
A|------------------
E|--7--7------7--7--



E|--------------------
B|--------------------
G|--9---9-----9---9---
D|--10--10----10--10--
A|--------------------
E|--8---8-----8---8---
http://www.guitartabcreator.com
Guitar Tab Creator is intended to store guitar tab created through the tool. It currently does not support in-line text editing. Any text you place in here will be lost. If you need to comment on your tab, please use the "Tab Notes" section located below.