The Beginning

(/) Slide Up  (\) Slide Down  (h) Hammer On  (p) Pull Off  (b) Bend (r) Release (v) Vibrato


E|------------------------------------14----------------15--------------
B|-0-0-15-0-14-15-0-17-0-15-0-14-15-0----0-15-0-14-15-0----0-15-0-14-15-
G|----------------------------------------------------------------------
D|----------------------------------------------------------------------
A|----------------------------------------------------------------------
E|----------------------------------------------------------------------



E|------------------17----------------14----------------15----------------
B|-0-0-15-0-14-15-0----0-15-0-14-15-0----0-15-0-14-15-0----0-15-0-14-15---
G|------------------------------------------------------------------------
D|------------------------------------------------------------------------
A|------------------------------------------------------------------------
E|------------------------------------------------------------------------
http://www.guitartabcreator.com
Guitar Tab Creator is intended to store guitar tab created through the tool. It currently does not support in-line text editing. Any text you place in here will be lost. If you need to comment on your tab, please use the "Tab Notes" section located below.