Metal Riff 2

(/) Slide Up  (\) Slide Down  (h) Hammer On  (p) Pull Off  (b) Bend (r) Release (v) Vibrato (m) Palm Mute

m m m m m m m m m m m m m m m m m m m m m m m m m m
E|--------------------------------------------------------------------------------------
B|--------------------------------------------------------------------------------------
G|--------------------------------------------------------------------------------------
D|-10-----7-----10-----7-----9-----6-----9-----6-----10-----7-----10-----7-----14-------
A|----7-8---8-7----7-8---8-7---6-7---7-6---6-7---7-6----7-8---8-7----7-8---8-7----10-12-
E|--------------------------------------------------------------------------------------


m m m m m m m m m m m m m m m m m m m m m m
E|----------------------------------------------------------------------------------------------
B|----------------------------------------------------------------------------------------------
G|----------------------------------------------------------------------------------------------
D|-10-------14-------10-------13------10------13------10------13-------9-------13-------9-------
A|----12-10----10-12----12-10----9-12----12-9----9-12----12-9----10-11---12-11----11-12---12-11-
E|----------------------------------------------------------------------------------------------
http://www.guitartabcreator.com
Guitar Tab Creator is intended to store guitar tab created through the tool. It currently does not support in-line text editing. Any text you place in here will be lost. If you need to comment on your tab, please use the "Tab Notes" section located below.