Natural Minor Boxes (A)

(/) Slide Up  (\) Slide Down  (h) Hammer On  (p) Pull Off  (b) Bend (r) Release (v) Vibrato
E|------------------------------------------------7--8--10--
B|--------------------------------------6--8--10------------
G|-----------------------------5--7--9----------------------
D|--------------------5--7--9-------------------------------
A|-----------5--7--8----------------------------------------
E|--5--7--8-------------------------------------------------



E|-----------------------------------------------------8--10--12--
B|------------------------------------------8--10--12-------------
G|--------------------------------7--9--10------------------------
D|----------------------7--9--10----------------------------------
A|------------7--8--10--------------------------------------------
E|--7--8--10------------------------------------------------------



E|----------------------------------------------------------10--12--13--
B|----------------------------------------------10--12--13--------------
G|-----------------------------------9--10--12--------------------------
D|------------------------9--10--12-------------------------------------
A|-------------8--10--12------------------------------------------------
E|--8--10--12-----------------------------------------------------------



E|--------------------------------------------------------------12--13--15--
B|--------------------------------------------------12--13--15--------------
G|--------------------------------------10--12--14--------------------------
D|--------------------------10--12--14--------------------------------------
A|--------------10--12--14--------------------------------------------------
E|--10--12--13--------------------------------------------------------------



E|--------------------------------------------------------------13--15--17--
B|--------------------------------------------------13--15--17--------------
G|--------------------------------------12--14--16--------------------------
D|--------------------------12--14--15--------------------------------------
A|--------------12--14--15--------------------------------------------------
E|--12--13--15--------------------------------------------------------------



E|--------------------------------------------------------------15--17--19--
B|--------------------------------------------------15--17--18--------------
G|--------------------------------------14--16--17--------------------------
D|--------------------------14--15--17--------------------------------------
A|--------------14--15--17--------------------------------------------------
E|--13--15--17--------------------------------------------------------------



E|--------------------------------------------------------------17--19--20--
B|--------------------------------------------------17--18--20--------------
G|--------------------------------------16--17--19--------------------------
D|--------------------------15--17--19--------------------------------------
A|--------------15--17--19--------------------------------------------------
E|--15--17--19--------------------------------------------------------------
http://www.guitartabcreator.com
Guitar Tab Creator is intended to store guitar tab created through the tool. It currently does not support in-line text editing. Any text you place in here will be lost. If you need to comment on your tab, please use the "Tab Notes" section located below.