G# Boxes (Custom Tuning)

(/) Slide Up  (\) Slide Down  (h) Hammer On  (p) Pull Off  (b) Bend (r) Release (v) Vibrato
E|-----------------------------------------------3--4--6--
B|--------------------------------------3--4--6-----------
G|-----------------------------1--3--5--------------------
D|--------------------1--3--5-----------------------------
A|-----------1--3--5--------------------------------------
E|--5--7--8-----------------------------------------------



E|------------------------------------------------4--6--8--
B|---------------------------------------4--6--8-----------
G|------------------------------3--5--7--------------------
D|---------------------3--5--6-----------------------------
A|------------3--5--6--------------------------------------
E|--7--8--10-----------------------------------------------



E|-------------------------------------------------6--8--10--
B|----------------------------------------6--8--9------------
G|-------------------------------5--7--8---------------------
D|----------------------5--6--8------------------------------
A|-------------5--6--8---------------------------------------
E|--8--10--12------------------------------------------------



E|------------------------------------------------------8--10--11--
B|--------------------------------------------8--9--11-------------
G|----------------------------------7--8--10-----------------------
D|------------------------6--8--10---------------------------------
A|--------------6--8--10-------------------------------------------
E|--10--12--14-----------------------------------------------------



E|----------------------------------------------------------10--11--13--
B|-----------------------------------------------9--11--13--------------
G|------------------------------------8--10--12-------------------------
D|-------------------------8--10--12------------------------------------
A|--------------8--10--11-----------------------------------------------
E|--12--14--15----------------------------------------------------------



E|--------------------------------------------------------------11--13--15--
B|--------------------------------------------------11--13--15--------------
G|--------------------------------------10--12--13--------------------------
D|--------------------------10--12--13--------------------------------------
A|--------------10--11--13--------------------------------------------------
E|--14--15--17--------------------------------------------------------------



E|--------------------------------------------------------------13--15--16--
B|--------------------------------------------------13--15--16--------------
G|--------------------------------------12--13--15--------------------------
D|--------------------------12--13--15--------------------------------------
A|--------------11--13--15--------------------------------------------------
E|--15--17--19--------------------------------------------------------------



E|--------------------------------------------------------------15--16--18--
B|--------------------------------------------------15--16--18--------------
G|--------------------------------------13--15--17--------------------------
D|--------------------------13--15--17--------------------------------------
A|--------------13--15--17--------------------------------------------------
E|--17--19--20--------------------------------------------------------------



E|--------------------------------------------------------------16--18--20--
B|--------------------------------------------------16--18--20--------------
G|--------------------------------------15--17--19--------------------------
D|--------------------------15--17--19--------------------------------------
A|--------------15--17--18--------------------------------------------------
E|--19--20--21--------------------------------------------------------------
http://www.guitartabcreator.com
Guitar Tab Creator is intended to store guitar tab created through the tool. It currently does not support in-line text editing. Any text you place in here will be lost. If you need to comment on your tab, please use the "Tab Notes" section located below.