The middle solo simplified

(/) Slide Up  (\) Slide Down  (h) Hammer On  (p) Pull Off  (b) Bend (r) Release (v) Vibrato


E|-----------------------------------
B|--2h3p2p0--------------------------
G|-----------2h3p2p0-----------------
D|--------------------2h3p2p0--------
A|-----------------------------5--4--
E|-----------------------------------



E|-------------------------
B|-------------------------
G|-------------------------
D|-------------------------
A|--4/7--5p4h5--4h5--0-----
E|----------------------0--



E|-----------------------------------
B|--2h3p2p0--------------------------
G|-----------2h3p2p0-----------------
D|--------------------2h3p2p0--------
A|-----------------------------5--4--
E|-----------------------------------



E|-----------------------------------------------------------------------
B|-----------------------------------------------------------------------
G|-----------------------------------------------------------------------
D|--0--0--0--0--0--0--0--0--2--2--2--2--2--2--2--2--4--4--4--4--4--4--5--
A|-----------------------------------------------------------------------
E|-----------------------------------------------------------------------



E|----------------------------
B|----------------------------
G|----------------------------
D|--4h5/7\5p4h5--4h5/7\5p4h5--
A|----------------------------
E|----------------------------



E|---------------------------------------------
B|---------------------------------------------
G|---------------------------------------------
D|---------------------------------------------
A|----7----7h9----9----11----11h12----11h12----
E|---------------------------------------------



E|--10--10--10--10--10--10--10--10--9--9--9--9--9--9--9--9--7--7--7--7--7--7--7--7--5--5--5--5--5--5--5--5--
B|----------------------------------------------------------------------------------------------------------
G|----------------------------------------------------------------------------------------------------------
D|----------------------------------------------------------------------------------------------------------
A|----------------------------------------------------------------------------------------------------------
E|----------------------------------------------------------------------------------------------------------



E|--3--2--0-----------
B|-----------3--2--0--
G|--------------------
D|--------------------
A|--------------------
E|--------------------
http://www.guitartabcreator.com
Guitar Tab Creator is intended to store guitar tab created through the tool. It currently does not support in-line text editing. Any text you place in here will be lost. If you need to comment on your tab, please use the "Tab Notes" section located below.