can't see can't hear I'm deaf I'm blind oh no! What the hel is wrro-o-o-ong--

(/) Slide Up  (\) Slide Down  (h) Hammer On  (p) Pull Off  (b) Bend (r) Release (v) Vibrato


E|--2--3--2--3--2--3--2--3--2--3--2--3--2--3--2--3--2--3--2--3--
B|--------------------------------------------------------------
G|--------------------------------------------------------------
D|--------------------------------------------------------------
A|--------------------------------------------------------------
E|--------------------------------------------------------------



E|-----------------------------
B|-----------------------------
G|-----------------------------
D|--------------4--------------
A|-----4-----4-----3--2--3--4--
E|--2-----2--------------------
http://www.guitartabcreator.com
Guitar Tab Creator is intended to store guitar tab created through the tool. It currently does not support in-line text editing. Any text you place in here will be lost. If you need to comment on your tab, please use the "Tab Notes" section located below.