once more

(/) Slide Up  (\) Slide Down  (h) Hammer On  (p) Pull Off  (b) Bend (r) Release (v) Vibrato


E|--1--1--1-----------------3--3--3-----------------
B|--3--3--3--3--3--3--3--3--5--5--5--5--5--5--5--5--
G|--3--3--3--5--5--5--5--5--5--5--5--7--7--7--7--7--
D|-----------5--5--5--5--5-----------7--7--7--7--7--
A|--------------------------------------------------
E|--------------------------------------------------



E|--1--1--1--1--------------3--3--3-----------------
B|--3--3--3--3--1--1--1--1--5--5--5--3--3--3--3--3--
G|--3--3--3--3--3--3--3--3--5--5--5--5--5--5--5--5--
D|--------------3--3--3--3-----------5--5--5--5--5--
A|--------------------------------------------------
E|--------------------------------------------------



E|--------3--3--1--1--1--1--------3--3--1--1--1--1--------------3--3--3--3-----------------
B|--3--1--5--5--3--3--3--3--3--1--5--5--3--3--3--3--3--3--3--3--5--5--5--5--5--5--5--5-----
G|--5--3--5--5--3--3--3--3--5--3--5--5--3--3--3--3--5--5--5--5--5--5--5--5--7--7--7--7-----
D|--5--3--------------------5--3--------------------5--5--5--5--------------7--7--7--7-----
A|-----------------------------------------------------------------------------------------
E|-----------------------------------------------------------------------------------------



E|--5--5--5--5--
B|--7--7--7--7--
G|--7--7--7--7--
D|--------------
A|--------------
E|--------------
Guitar Tab Creator is intended to store guitar tab created through the tool. It currently does not support in-line text editing. Any text you place in here will be lost. If you need to comment on your tab, please use the "Tab Notes" section located below.