What I've Done

(/) Slide Up  (\) Slide Down  (h) Hammer On  (p) Pull Off  (b) Bend (r) Release (v) Vibrato
E|--------------------------------------------------------------------------------------------------
B|-----3-----3--4--3-----3--------------------------------------------1--1--------------------------
G|--0-----0-----------0-----3--3--3--3--3--3--2--2--3--3--3--3--3--3--------2--2--2--2--2--2--2-----
D|--------------------------------------------------------------------------------------------------
A|--------------------------------------------------------------------------------------------------
E|--------------------------------------------------------------------------------------------------



E|--------------------------------------------------------------------------------------------------
B|-----------------------------------------------------------------------1--1-----------------------
G|--2--0--0--0--0--0--0--2--2--3--3--3--3--3--3--2--2--3--3--3--3--3--3--------2--2--2--2--2--2-----
D|--------------------------------------------------------------------------------------------------
A|--------------------------------------------------------------------------------------------------
E|--------------------------------------------------------------------------------------------------



E|--------------------------------------------------------------------------------------------------
B|--------------------------------------------------------------------------------------------------
G|--2--2--0--0--0--0--0--0--2--2--3--3--2--3--0--2--3--0--2--3--0--0--3--3--3--2--3--0--2--3--0--2--
D|--------------------------------------------------------------------------------------------------
A|--------------------------------------------------------------------------------------------------
E|--------------------------------------------------------------------------------------------------



E|--------------------------------------3--1--3--1--1-----------1--------3--1--3--1--1-----------1--
B|-----1--1-----3--3--1--------1--3--1-----------------4--3--1-----4--3-----------------4--3--1-----
G|--3--------3-----------3--0-----------------------------------------------------------------------
D|--------------------------------------------------------------------------------------------------
A|--------------------------------------------------------------------------------------------------
E|--------------------------------------------------------------------------------------------------



E|--------3--1--3-----------------------------------------------------------------------------------
B|--4--3--------------------------------------------------------------------1--1-----3--3--1--------
G|-----------------3--2--0--0--2--3--0--0--3--3--3--2--3--0--2--3--0--2--3--------3-----------3--0--
D|--------------------------------------------------------------------------------------------------
A|--------------------------------------------------------------------------------------------------
E|--------------------------------------------------------------------------------------------------



E|-----------3--1--3--1--1-----------1--------3--1--3--1--1-----------1--------3--1--3--------------
B|--1--3--1-----------------4--3--1-----4--3-----------------4--3--1-----4--3-----------------------
G|--------------------------------------------------------------------------------------0--0--0--2--
D|--------------------------------------------------------------------------------------------------
A|--------------------------------------------------------------------------------------------------
E|--------------------------------------------------------------------------------------------------



E|--------------------------------------------------------------------------3--1--3--1--1-----------
B|-----------1-----------------------------------------------1-----------------------------4--3--1--
G|--3--3--3-----2--2--2--2--0--0--0--2--0--0--0--2--3--3--3-----2--2--2--0--------------------------
D|--------------------------------------------------------------------------------------------------
A|--------------------------------------------------------------------------------------------------
E|--------------------------------------------------------------------------------------------------



E|--1--------3--1--3-----1--------3--1--3--1--1-----------1--------3--1--3--1--1-----------1--------
B|-----4--3-----------1-----4--3-----------------4--3--1-----4--3-----------------4--3--1-----4--3--
G|--------------------------------------------------------------------------------------------------
D|--------------------------------------------------------------------------------------------------
A|--------------------------------------------------------------------------------------------------
E|--------------------------------------------------------------------------------------------------



E|--3--1--3-----------------------------------------------------------------------------------------
B|--------------------------1--------------------------------------1--------------------------3-----
G|-----------3--3--2--3--3-----2--2--0--3--2--0--2--3--3--2--3--3-----2--2--0--3--2--0--2--0-----0--
D|--------------------------------------------------------------------------------------------------
A|--------------------------------------------------------------------------------------------------
E|--------------------------------------------------------------------------------------------------



E|-----------------
B|--3--4--3-----3--
G|-----------0-----
D|-----------------
A|-----------------
E|-----------------
http://www.guitartabcreator.com
Guitar Tab Creator is intended to store guitar tab created through the tool. It currently does not support in-line text editing. Any text you place in here will be lost. If you need to comment on your tab, please use the "Tab Notes" section located below.