Promise of the World - Merry-go-round of life (From the Anime Film "Hawl's Moving Castle"

(/) Slide Up  (\) Slide Down  (h) Hammer On  (p) Pull Off  (b) Bend (r) Release (v) Vibrato

E|-----|------|------|----3-|-1--0-|----3-|----5-|----3-|----5-|-5---|-
B|---1-|----3-|-1----|------|------|-1----|-3----|-1----|-3----|-6---|-
G|-----|-0----|----4-|-2----|------|------|------|------|------|-4---|-
D|-----|------|------|------|------|------|------|------|------|-----|-
A|-----|------|------|------|------|------|------|------|------|-----|-
E|-----|------|------|------|------|------|------|------|------|-----|-



E|-5---|-0---|----|----|------5-|-5--3-1-|--5--8-|-5---|---5-8-|-6----|-
B|-6---|-----|----|----|----1---|--------|-------|-----|-------|----3-|-
G|-3---|-----|----|----|-0------|--------|-------|-----|-------|------|-
D|-----|-----|----|----|--------|--------|-------|-----|-------|------|-
A|-----|-----|----|----|--------|--------|-------|-----|-------|------|-
E|-----|-----|----|----|--------|--------|-------|-----|-------|------|-



E|----5-3-|-3---|-----5-|-5--3-1-|-5--5-8-|-8---|---8-|-6-5---|-5--3-1-|-1---|-
B|-3------|-----|---1---|--------|--------|-----|-----|-----3-|--------|-----|-
G|--------|-----|-------|--------|--------|-----|-----|-------|--------|-----|-
D|--------|-----|-------|--------|--------|-----|-----|-------|--------|-----|-
A|--------|-----|-------|--------|--------|-----|-----|-------|--------|-----|-
E|--------|-----|-------|--------|--------|-----|-----|-------|--------|-----|-



E|-1--5-|-6----|-------|-5---|-1----5-|-5-3-1-|-0-1-3-|-5---|---5-|-8--6-|-
B|------|----3-|-3-1-3-|-----|----3---|-------|-------|-----|-----|------|-
G|------|------|-------|-----|--------|-------|-------|-----|-----|------|-
D|------|------|-------|-----|--------|-------|-------|-----|-----|------|-
A|------|------|-------|-----|--------|-------|-------|-----|-----|------|-
E|------|------|-------|-----|--------|-------|-------|-----|-----|------|-



E|------|-5-----|-5---|-3-5-6-|-6-5--|-1-0---|-0---|-3-1---|-3-1---|-3-1---|-
B|-0--0-|---1-3-|-----|-------|------|-----3-|-----|-----1-|-----1-|-----1-|-
G|------|-------|-----|-------|------|-------|-----|-------|-------|-------|-
D|------|-------|-----|-------|------|-------|-----|-------|-------|-------|-
A|------|-------|-----|-------|------|-------|-----|-------|-------|-------|-
E|------|-------|-----|-------|------|-------|-----|-------|-------|-------|-



E|-3-1---|-6-3---|-6-3---|-6-3---|-6-3---|-15-8-|-15-13-8-|-15-12-8-|-15-12-8-|-8-5-1---
B|-----1-|-----3-|-----3-|-----1-|-----1-|------|---------|---------|---------|---------
G|-------|-------|-------|-------|-------|------|---------|---------|---------|---------
D|-------|-------|-------|-------|-------|------|---------|---------|---------|---------
A|-------|-------|-------|-------|-------|------|---------|---------|---------|---------
E|-------|-------|-------|-------|-------|------|---------|---------|---------|---------
http://www.guitartabcreator.com
Guitar Tab Creator is intended to store guitar tab created through the tool. It currently does not support in-line text editing. Any text you place in here will be lost. If you need to comment on your tab, please use the "Tab Notes" section located below.