dani california verse bass

(/) Slide Up  (\) Slide Down  (h) Hammer On  (p) Pull Off  (b) Bend (r) Release (v) Vibrato


E|-----------------------------------------------------
B|-----------------------------------------------------
G|--------------------------------7--------------------
D|--------7-----------5--3-----------0--5--7--5--------
A|--------------------------5--5-----------------7--5--
E|--5--5-----0--3--3-----------------------------------



E|----------------------------------------------------------
B|----------------------------------------------------------
G|--------------------------------7-------------------------
D|--------7-----------5--3----------------------------------
A|--------------------------5--5-----0--3--5--3--5/7--7--7--
E|--5--5-----0--3--3----------------------------------------



E|-----------------------------------------------------
B|-----------------------------------------------------
G|--------------------------------7--------------------
D|--------7-----------5--3-----------0--5--7--5--------
A|--------------------------5--5-----------------7--5--
E|--5--5-----0--3--3-----------------------------------



E|--------------------------------------------------------
B|--------------------------------------------------------
G|--------------------------------7-----------5-----------
D|--------7-----------5--3-----------0--5--7-----7--5-----
A|--------------------------5--5-----------------------7--
E|--5--5-----0--3--3--------------------------------------



E|-----------------------------------------------------
B|-----------------------------------------------------
G|--------------------------------7--------------------
D|--------7-----------5--3-----------0--5--7--5--------
A|--------------------------5--5-----------------7--5--
E|--5--5-----0--3--3-----------------------------------



E|-----------------------------------------------------------
B|-----------------------------------------------------------
G|--------------------------------7-----------5--------10/9--
D|--------7-----------5--3-----------0--5--7-----7--7--------
A|--------------------------5--5-----------------------------
E|--5--5-----0--3--3-----------------------------------------



E|-----------------------------------------------------
B|-----------------------------------------------------
G|--------------------------------7--------------------
D|--------7-----------5--3-----------0--5--7--5--------
A|--------------------------5--5-----------------7--5--
E|--5--5-----0--3--3-----------------------------------



E|-----------------------------------------------------------------
B|-----------------------------------------------------------------
G|--------------------------------7--------------------------------
D|--------7-----------5--3--------------------5-----5--7--5--------
A|--------------------------5--5-----0h5h6h7-----7-----------7--5--
E|--5--5-----0--3--3-----------------------------------------------



E|-----------------------------------------------------
B|-----------------------------------------------------
G|--------------------------------7--------------------
D|--------7-----------5--3-----------0--5--7--5--------
A|--------------------------5--5-----------------7--5--
E|--5--5-----0--3--3-----------------------------------
http://www.guitartabcreator.com
Guitar Tab Creator is intended to store guitar tab created through the tool. It currently does not support in-line text editing. Any text you place in here will be lost. If you need to comment on your tab, please use the "Tab Notes" section located below.