dani california chorus bass

(/) Slide Up  (\) Slide Down  (h) Hammer On  (p) Pull Off  (b) Bend (r) Release (v) Vibrato

E|----------------------------------------------------------------------------------------------
B|----------------------------------------------------------------------------------------------
G|----------------------------------------------------------------------------------------------
D|----------------------------------------------------------------------------------------------
A|------------------------0--3--3----3--0------3/5--5--5--5----5--5--5--------------------------
E|--1----1--1----1--1--1--------------------------------------------------0--3--3--3------0-----



E|----------------------------------------------------------------------------------------------
B|----------------------------------------------------------------------------------------------
G|----------------------------------------------------------------------------------------------
D|----------------------------------------------------------------------------------------------
A|----------------------3--3--3--0----3h5--5--5--0--5--5--5--0--0--0--5--5--5--0--0--0--5--5----
E|--1----1--1--1--1--1----------------------------------------------------------------------/12/
http://www.guitartabcreator.com
Guitar Tab Creator is intended to store guitar tab created through the tool. It currently does not support in-line text editing. Any text you place in here will be lost. If you need to comment on your tab, please use the "Tab Notes" section located below.