Subtle Change

(/) Slide Up  (\) Slide Down  (h) Hammer On  (p) Pull Off  (b) Bend (r) Release (v) Vibrato


E|--------------------------------------------------------------------------------------------------
B|--------------------------------------------------------------------------------------------------
G|-----------------------------------------------------0-----0-----0-----0-----0-----0-----0-----0--
D|-----0-----0-----0-----0-----0-----0-----0-----0--------------------------------------------------
A|--------------------------------------------------------------------------------------------------
E|--3-----3-----3-----3-----3-----3-----3-----3-----8-----8-----8-----8-----7-----7-----7-----7-----



E|--------------------------------------------------------------------------------------------------
B|--------------------------------------------------------------------------------------------------
G|-----------------------------------------------------0-----0-----0-----0--------------------------
D|-----0-----0-----0-----0-----0-----0-----0-----0-----------------------------0-----0-----0-----0--
A|--------------------------------------------------------------------------------------------------
E|--3-----3-----5-----3-----5-----3-----3-----5-----8-----8-----7-----7-----3-----3-----3-----3-----



E|---------------------------------------------------------------------------------------------------
B|---------------------------------------------------------------------------------------------------
G|------------------------------------------------------0------0------0------0------0------0------0--
D|-----0-----0-----0-----0-----0-----0-----0-----0---------------------------------------------------
A|---------------------------------------------------------------------------------------------------
E|--0-----0-----2-----2-----3-----3-----3-----3-----12-----12-----12-----12-----10-----10-----10-----



E|---------------------------------------------------------------------------------------------------
B|---------------------------------------------------------------------------------------------------
G|------0-----0-----0-----0-----0--------------------------------------------------------------------
D|------------------------------------0-----0-----0-----0-----0-----0-----0-----0-----0-----0-----0--
A|---------------------------------------------------------------------------------------------------
E|--10-----7-----7-----8-----8-----3-----3-----5-----3-----5-----5-----3-----3-----3-----3-----0-----



E|--------------------------------------------------------------------------------------------
B|--------------------------------------------------------------------------------------------
G|--------------------------------------------------------------------------------------------
D|-----0-----0-----0-----0-----0-----0-----0-----0-----0-----0-----0-----0-----0-----0-----0--
A|--------------------------------------------------------------------------------------------
E|--0-----2-----2-----3-----3-----3-----3-----0-----0-----2-----2-----3-----3-----3-----3-----
http://www.guitartabcreator.com
Guitar Tab Creator is intended to store guitar tab created through the tool. It currently does not support in-line text editing. Any text you place in here will be lost. If you need to comment on your tab, please use the "Tab Notes" section located below.