Sad Dress

(/) Slide Up  (\) Slide Down  (h) Hammer On  (p) Pull Off  (b) Bend (r) Release (v) Vibrato


E|---------0---------------
B|----------------3-----1--
G|--2----------------0-----
D|-------------------------
A|-------------------------
E|-------------------------



E|-------------------------
B|-------------------------
G|-------------------------
D|---------2------0--------
A|--0-------------------3--
E|-------------------3-----



E|---------5------0------------------
B|--3-----------------------------3--
G|-------------------------0---------
D|-----------------------------------
A|-----------------------------------
E|-----------------------------------



E|--5--3--2--3--2--0--2--3--2--0-------------------------------------------------------
B|--------------------------------3--2--3--2--0--------0------------0------------0--2--
G|-----------------------------------------------2--------2------------2------------2--
D|--------------------------------------------------2------------2------------2--------
A|-------------------------------------------------------------------------------------
E|-------------------------------------------------------------------------------------
http://www.guitartabcreator.com
Guitar Tab Creator is intended to store guitar tab created through the tool. It currently does not support in-line text editing. Any text you place in here will be lost. If you need to comment on your tab, please use the "Tab Notes" section located below.