Angel

(/) Slide Up  (\) Slide Down  (h) Hammer On  (p) Pull Off  (b) Bend (r) Release (v) Vibrato
Intro: play notes repeatedly
E|-----------5-----5-----5-----5-----5-----
B|-----5-----5-----6-----5-----4-----2-----
G|-----------------------------------------
D|-----------------------------------------
A|-----------------------------------------
E|-----------------------------------------


Main Riff
E|-----1--3--1------0--3----1--0--1-------0--1--0-------0-------0--0--
B|--3-----------------------------------------------------------------
G|-----------------------------------2---------------2-------2--------
D|--------------------------------------------------------------------
A|--------------------------------------------------------------------
E|--------------------------------------------------------------------


Other riff, play notes repeatedly
E|-----------5-----------
B|-----3-----------5-----
G|-----------------------
D|-----------------------
A|-----------------------
E|-----------------------


Arpeggio thing
E|--------------0-----------------------0-----------
B|--3-----3-----------3-----2-----2-----------2-----
G|-----2-----2-----2-----2-----2-----2-----2-----2--
D|--------------------------------------------------
A|--------------------------------------------------
E|--------------------------------------------------
http://www.guitartabcreator.com
Guitar Tab Creator is intended to store guitar tab created through the tool. It currently does not support in-line text editing. Any text you place in here will be lost. If you need to comment on your tab, please use the "Tab Notes" section located below.