A Thousand Miles

(/) Slide Up  (\) Slide Down  (h) Hammer On  (p) Pull Off  (b) Bend (r) Release (v) Vibrato

E|--7-----7--6-----6--------------|--7-----7--6-----6--------------------------------|--
B|--------------------7--4--------|--------------------7-----7-----7-----4--5--4-----|--
G|-----4--------4-----------6--4--|-----4--------4--------4-----4-----4-----------4--|--
D|-----------4--------------------|-----------4--------------------------------------|--
A|--7-----------------6--7--------|--7-----------------6-----------------------------|--
E|--------------------------------|--------------------------------------------------|--



E|--7-----7--6-----6--------------|--------------------------|--------------------------|--
B|--------------------7--4--------|--4--------4--------7-----|--7--7--7--7--------4-----|--
G|-----4--------4-----------6--4--|-----6--4-----6--4-----6--|--------------6--6-----6--|--
D|-----------4--------------------|-----------4--------4-----|-----------4--------------|--
A|--7-----------------6--7--------|--7--------------------6--|--7--------------6--7-----|--
E|--------------------------------|--------------------------|--------------------------|--



E|--------------------------|--7-----7--6-----6--------------------------------|--
B|-----4--------------4-----|--------------------7-----7-----7-----4--5--4-----|--
G|--6-----6--6--6--4-----4--|-----4--------4--------4-----4-----4-----------4--|--
D|-----4--------------------|-----------4--------------------------------------|--
A|--7--------6--------7-----|--7-----------------6-----------------------------|--
E|--------------------------|--------------------------------------------------|--



E|--7-----7--6-----6--------------------------------|--------------------------------|-----
B|--------------------7-----7-----7-----4--5--4-----|--7--7--7--------------4--------|-----
G|-----4--------4--------4-----4-----4-----------4--|-----------6--6--6--4-----6--6--|-----
D|-----------4--------------------------------------|--------4-----------------------|-----
A|--7-----------------6-----------------------------|--7--------------6-----7--------|-----
E|--------------------------------------------------|--------------------------------|-----



E|-----------------------|-----------------------------------|--
B|-----4-----------------|-----------7-----7-----4--5--4-----|--
G|--6-----6--6--6--6--6--|--6--6--4-----4-----4-----------4--|--
D|-----4-----------------|-----4-----------------------------|--
A|--7-----------6--7-----|--7-----6--------------------------|--
E|-----------------------|-----------------------------------|--



E|--7-----7--6-----6--------------------------------|-----------------------------------|--
B|--------------------7-----7-----7-----4--5--4-----|-----------4--4--4-----------4-----|--
G|-----4--------4--------4-----4-----4-----------4--|--4--4--4--4--4--4--6--4--4-----6--|--
D|-----------4--------------------------------------|--4--4--4--------------------------|--
A|--7-----------------6-----------------------------|--7--7--7--------------------------|--
E|--------------------------------------------------|-----------------------------------|--



E|-----------------------------------|--------------------------------|--7--6--6--|--
B|-----------4--4--4-----------7-----|-----------4--4--4--------4-----|-----------|--
G|--4--4--4--4--4--4--6--4--4-----6--|--4--4--4--4--4--4--6--4-----6--|-----------|--
D|--4--4--4--------------------------|--4--4--4-----------------------|--6--4-----|--
A|--7--7--7--------------------------|--7--7--7-----------------------|--7--------|--
E|-----------------------------------|--------------------------------|-----------|--



E|--6--7--14--------6--|--6--7--4--------6--|--6--
B|--------11-----------|--7-----------------|--7--
G|-----4---------4-----|-----4--------4-----|-----
D|------------4--------|--8--------8--------|--8--
A|--7------------------|--7--------7--------|--7--
E|---------------------|--------------------|-----
http://www.guitartabcreator.com
Guitar Tab Creator is intended to store guitar tab created through the tool. It currently does not support in-line text editing. Any text you place in here will be lost. If you need to comment on your tab, please use the "Tab Notes" section located below.