Geiger Counter Bass Tab

(/) Slide Up  (\) Slide Down  (h) Hammer On  (p) Pull Off  (b) Bend (r) Release (v) Vibrato

(W|WW) Whole (H|HH) Half (Q|QQ) Quarter (E|EE) 8th (S|SS) 16th (T|TT) 32nd (X|XX) 64th

t: W W W W undefined W W W W undefined W W W W W W W W W undefined W W W W W
E|--------------|--------------|--------------|--------------|--------------|-----
B|--------------|--------------|--------------|--------------|--------------|-----
G|-----2-----2--|--------------|-----2-----2--|--------------|-----2--------|-----
D|--0-----0-----|-----------0--|--0-----0-----|-----------0--|--0-----------|-----
A|--------------|-----4--------|--------------|-----4--------|-----------4--|-----
E|--------------|--2-----3-----|--------------|--2-----3-----|--------2-----|-----


t: W W W W undefined W W W W undefined W W W W W
E|--------------|--------------|-------------|--
B|--------------|--------------|-------------|--
G|--------------|--------------|-------------|--
D|-----0-----0--|--2--0--------|--0-----0----|--
A|--------------|--------4--0--|-----0-------|--
E|--3-----3-----|--------------|-------------|--
http://www.guitartabcreator.com
Guitar Tab Creator is intended to store guitar tab created through the tool. It currently does not support in-line text editing. Any text you place in here will be lost. If you need to comment on your tab, please use the "Tab Notes" section located below.