Drills And Engines (Verse)

(/) Slide Up  (\) Slide Down  (h) Hammer On  (p) Pull Off  (b) Bend (r) Release (v) Vibrato

(W|WW) Whole (H|HH) Half (Q|QQ) Quarter (E|EE) 8th (S|SS) 16th (T|TT) 32nd (X|XX) 64th

t: W W W W undefined W W W W undefined W W W W undefined W W W W undefined
E|-----------3--|-----------1--|-----------5--|-----------3--|--
B|--------3-----|--------1-----|--------6-----|--------3-----|--
G|-----3--------|-----2--------|-----7--------|-----3--------|--
D|--5-----------|--3-----------|--7-----------|--5-----------|--
A|--------------|--------------|--------------|--------------|--
E|--------------|--------------|--------------|--------------|--


t: W W W W undefined W W W W undefined W W W W undefined W W W W undefined
E|-----------3--|-----------1--|-----------5--|-----------3--|--
B|--------3-----|--------1-----|--------6-----|--------3-----|--
G|-----3--------|-----2--------|-----7--------|-----3--------|--
D|--5-----------|--3-----------|--7-----------|--5-----------|--
A|--------------|--------------|--------------|--------------|--
E|--------------|--------------|--------------|--------------|--


t: W W W WW undefined W W W W undefined W W W W undefined W W W W undefined
E|-----------11--|-----------6--|-----------2--|-----------3--|--
B|--------8------|--------3-----|--------1-----|--------3-----|--
G|-----8---------|-----3--------|-----2--------|-----3--------|--
D|--8------------|--3-----------|--0-----------|--5-----------|--
A|---------------|--------------|--------------|--------------|--
E|---------------|--------------|--------------|--------------|--


t: W W W W undefined W W W W undefined W W W W W W W W W
E|-----------3--|-----------1--|-----------5--|-----------3--
B|--------3-----|--------1-----|--------6-----|--------3-----
G|-----3--------|-----2--------|-----7--------|-----3--------
D|--5-----------|--3-----------|--7-----------|--5-----------
A|--------------|--------------|--------------|--------------
E|--------------|--------------|--------------|--------------
http://www.guitartabcreator.com
Guitar Tab Creator is intended to store guitar tab created through the tool. It currently does not support in-line text editing. Any text you place in here will be lost. If you need to comment on your tab, please use the "Tab Notes" section located below.