Train In Vain - The Clash (little lead bit at the end)

(/) Slide Up  (\) Slide Down  (h) Hammer On  (p) Pull Off  (b) Bend (r) Release (v) Vibrato

E|--------------------
B|--------------------
G|--------------------
D|--7--------7-----7--
A|-----9--7-----9-----
E|--------------------



E|--------------------
B|--------------------
G|--------------------
D|--7--------7--7-----
A|-----9--7--------9--
E|--------------------



E|--------------------------------------
B|--------------------------------------
G|--------------------------------------
D|--7--------7--------7--------7--7-----
A|-----9--7-----9--7-----9--7--------9--
E|--------------------------------------



E|--------------------------------------
B|--------------------------------------
G|--------------------------------------
D|--7--------7--9b10--7--------7--7-----
A|-----9--7--------------9--7--------9--
E|--------------------------------------



E|--------------7--5--
B|--------------------
G|--------------------
D|--7-----7--7--------
A|-----9--------------
E|--------------------



E|-----------------
B|-----------------
G|-----------------
D|-----7-----7-----
A|-----------------
E|--5-----5-----5--
http://www.guitartabcreator.com
Guitar Tab Creator is intended to store guitar tab created through the tool. It currently does not support in-line text editing. Any text you place in here will be lost. If you need to comment on your tab, please use the "Tab Notes" section located below.