Point Blank Bass

(/) Slide Up  (\) Slide Down  (h) Hammer On  (p) Pull Off  (b) Bend (r) Release (v) Vibrato


E|--------------------------------------------------------------------------
B|--------------------------------------------------------------------------
G|--------------------------------------------------------------------------
D|--------------------------------------------------------------------------
A|--------------------------------------------------------------------------
E|--0--0--0--0--0--0--1--0--0--0--0--0--7--0--0--0--0--0--6--0--0--5--0--3--



E|--------------------------------------------------------------------------------------------------------------------
B|--------------------------------------------------------------------------------------------------------------------
G|--------------------------------------------------------------------------------------------------------------------
D|--------------------------------------------------------------------------------------------------------------------
A|--------------------------------------------------------------------------------3--------------------------------3--
E|--7--0--0--0--0--8--0--0--0--0--3--3--3--3--5--6--0--0--0--3--0--0--0--2--0--0-----0--0--0--3--0--0--0--2--0--0-----



E|--------------------------------------------------------------------------
B|--------------------------------------------------------------------------
G|--------------------------------------------------------------------------
D|--------------------------------------------------------------------------
A|--------------------------------------------------------------------------
E|--0--0--0--0--0--0--0--0--0--0--0--0--0--0--0--0--0--0--0--0--0--0--0--0--



E|-------------------------------------------------------------------
B|-------------------------------------------------------------------
G|-------------------------------------------------------------------
D|-------------------------------------------------------------------
A|-------------------------------------------------------------------
E|--8--8--8--8--8--8--8--8--8--8--8--8--3--3--3--3--3--3--5--5--5--5b



E|--------------------------------------------------------------------------------------------------------------
B|--------------------------------------------------------------------------------------------------------------
G|--------------------------------------------------------------------------------------------------------------
D|--------------------------------------------------------------------------------------------------------------
A|--------------------------------------------------------------------------------------------------------------
E|--0--0--0--0--0--0--3--5--6--0--0--0--0--0--0--6--5--1--0--0--0--0--0--0--3--5--6--0--0--0--0--0--0--6--5--1--



E|--------------
B|--------------
G|--------------
D|--------------
A|--------------
E|----0----0----



E|--------------------------------------------------------------------------------------------------
B|--------------------------------------------------------------------------------------------------
G|--------------------------------------------------------------------------------------------------
D|--------------------------------------------------------------------------------------------------
A|--------------------------1--1--1--1--1--1--1--1--------------------------3--3--3--3--3--3--3--3--
E|--0--0--0--0--0--0--0--0--------------------------3--3--3--3--3--3--3--3--------------------------



E|--------------------------------------------------------------------------------------------------
B|--------------------------------------------------------------------------------------------------
G|--------------------------------------------------------------------------------------------------
D|--------------------------------------------------------------------------------------------------
A|--------------------------1--1--1--1--1--1--1--1--------------------------------------------------
E|--0--0--0--0--0--0--0--0--------------------------3--3--3--3--3--3--3--3--5--5--5--5--3--3--3--3--



E|--------------------------------------------------------------------------------------------------
B|--------------------------------------------------------------------------------------------------
G|--------------------------------------------------------------------------------------------------
D|--------------------------------------------------------------------------------------------------
A|--------------------------1--1--1--1--1--1--1--1--------------------------3--3--3--3--3--3--3--3--
E|--0--0--0--0--0--0--0--0--------------------------3--3--3--3--3--3--3--3--------------------------



E|-----------------------------------------------------------
B|-----------------------------------------------------------
G|-----------------------------------------------------------
D|-----------------------------------------------------------
A|--------------------------1--1--1--1--1--1--1--1-----------
E|--0--0--0--0--0--0--0--0--------------------------3--5--2--
http://www.guitartabcreator.com
Guitar Tab Creator is intended to store guitar tab created through the tool. It currently does not support in-line text editing. Any text you place in here will be lost. If you need to comment on your tab, please use the "Tab Notes" section located below.