In Between

(/) Slide Up  (\) Slide Down  (h) Hammer On  (p) Pull Off  (b) Bend (r) Release (v) Vibrato


E|---------------------------------------
B|---------------------------------------
G|---------------------------------------
D|---------------------------------------
A|---------------------------------------
E|--0--0--8--8--8--8--10--10--11--11-----



E|--------------------------------------------------------------------------------------------------
B|--------------------------------------------------------------------------------------------------
G|--------------------------------------------------------------------------------------------------
D|--------------------------------------------------------------------------------------------------
A|--------------------------------------------------------------------------------------------------
E|--0--0--0--0--0--0--0--0--8--8--8--8--8--8--8--8--5--5--5--5--5--5--5--5--1--1--1--1--1--1--1--1--



E|--------------------------------------------------------------------------------------------------
B|--------------------------------------------------------------------------------------------------
G|--------------------------------------------------------------------------------------------------
D|--------------------------------------------------------------------------------------------------
A|--------------------------------------------------------------------------------------------------
E|--0--0--0--0--0--0--0--0--8--8--8--8--8--8--8--8--5--5--5--5--5--5--5--5--1--1--1--1--3--3--4--4--



E|-----------------------------------------------------------------------------------------------------------
B|-----------------------------------------------------------------------------------------------------------
G|-----------------------------------------------------------------------------------------------------------
D|-----------------------------------------------------------------------------------------------------------
A|-----------------------------------------------------------------------------------------------------------
E|--12--12--12--0--0--0--3--3--3--5--5--5--6--6--5--5--12--12--12--0--0--0--3--3--3--6--6--6--5--5--3--3-----



E|---------------------------------------------------------------------------------------------------------
B|---------------------------------------------------------------------------------------------------------
G|---------------------------------------------------------------------------------------------------------
D|---------------------------------------------------------------------------------------------------------
A|---------------------------------------------------------------------------------------------------------
E|--12--12--12--0--0--0--3--3--3--5--5--5--6--6--5--5--1--1--1--1--10--10--10--10--8--8--8--8--3--3--3--3--



E|-----------------------------------------------------------------------------------------------------------------------------------------
B|-----------------------------------------------------------------------------------------------------------------------------------------
G|-----------------------------------------------------------------------------------------------------------------------------------------
D|-----------------------------------------------------------------------------------------------------------------------------------------
A|-----------------------------------------------------------------------------------------------------------------------------------------
E|--0--0--0--0--0--0--0--0--0--0--0--0--0--0--0--3--3--3--3--3--3--3--3--3--3--3--3--3--3--3--8--8--8--8--8--8--8--2--2--2--2--2--2--2-----



E|-----------------------------------------------
B|-----------------------------------------------
G|-----------------------------------------------
D|-----------------------------------------------
A|-----------------------------------------------
E|--0--0--0--0--0--0--0--0--0--0--0--0--0--0--0--



E|--------------------------------------------------------------------------------------------------------------------------------------
B|--------------------------------------------------------------------------------------------------------------------------------------
G|--------------------------------------------------------------------------------------------------------------------------------------
D|--------------------------------------------------------------------------------------------------------------------------------------
A|--------------------------------------------------------------------------------------------------------------------------------------
E|--0--0--0--0--0--0--0--0--0--0--0--0--0--0--0--3--3--3--3--3--3--3--3--3--3--3--3--3--3--3--8--8--8--8--8--8--8--2--2--2--2--2--2--2--



E|-----------------------------------------------
B|-----------------------------------------------
G|-----------------------------------------------
D|-----------------------------------------------
A|-----------------------------------------------
E|--0--0--0--0--0--0--0--0--0--0--0--0--0--0--0--



E|--------------------------------------------------------------------------------------------------------------------
B|--------------------------------------------------------------------------------------------------------------------
G|--------------------------------------------------------------------------------------------------------------------
D|--------------------------------------------------------------------------------------------------------------------
A|--------------------------------------------------------------------------------------------------------------------
E|--0--0--0--0--7--0--0--0--0--6--0--0--0--0--3--0--0--0--0--0--0--0--0--7--0--0--0--0--6--0--0--0--0--3--0--0--0--0--



E|------------------------------------------------------------------------------
B|------------------------------------------------------------------------------
G|------------------------------------------------------------------------------
D|------------------------------------------------------------------------------
A|------------------------------------------------------------------------------
E|--10--12--0--0--0--3--10--12--0--0--0--6--0--0--8--0--0--7--0--0--5--0--0--3--



E|--------------------------------------------------------------------
B|--------------------------------------------------------------------
G|--------------------------------------------------------------------
D|--------------------------------------------------------------------
A|--------------------------------------------------------------------
E|--0--0--0--3--0--0--5--0--6--5--3--0--0--0--3--0--0--6--0--5--3--5--



E|------------------------------------------------------------------------------
B|------------------------------------------------------------------------------
G|------------------------------------------------------------------------------
D|------------------------------------------------------------------------------
A|------------------------------------------------------------------------------
E|--10--12--0--0--0--3--10--12--0--0--0--6--0--0--5--0--0--7--0--0--3--0--0--2--



E|-----------------------------------------------------
B|-----------------------------------------------------
G|-----------------------------------------------------
D|-----------------------------------5--3--------------
A|-----------------------------3--5--------4--3--------
E|--0--0--0--3--0--0--5--0--6--------------------3--5--



E|--------------------------------------------------------------------------------------------------------------------------
B|--------------------------------------------------------------------------------------------------------------------------
G|--------------------------------------------------------------------------------------------------------------------------
D|--------------------------------------------------------------------------------------------------------------------------
A|--------------------------------------------------------------------------------------------------------------------------
E|--6--6--6--6--6--6--6--6--5--5--5--5--3--3--3--3--0--0--0--0--0--8--0--0--0--0--0--7--0--0--0--0--0--2--0--0--0--0--0--3--



E|------------------------------------------------------------------------------------------------------------------------
B|------------------------------------------------------------------------------------------------------------------------
G|------------------------------------------------------------------------------------------------------------------------
D|------------------------------------------------------------------------------------------------------------------------
A|------------------------------------------------------------------------------------------------------------------------
E|--6--6--6--6--6--6--6--6--5--5--5--5--11--11--11--11--0--0--0--0--0--8--0--0--0--0--0--7--0--0--0--0--0--2--0--0--9--8--



E|-----------------------------------------------------------------------------------------------------------------------------------------------
B|-----------------------------------------------------------------------------------------------------------------------------------------------
G|-----------------------------------------------------------------------------------------------------------------------------------------------
D|-----------------------------------------------------------------------------------------------------------------------------------------------
A|-----------------------------------------------------------------------------------------------------------------------------------------------
E|--6--6--8--9--8--6--6--8--9--8--6--6--0--6--9--8--6--6--8--9--8--6--6--0--6--9--8--6--6--8--9--8--6--6--0--6--9--8--6--6--8--9--8--6--6--8-----



E|---------------------------------------------------------------------------------------------------------------------------------------------------------------
B|---------------------------------------------------------------------------------------------------------------------------------------------------------------
G|---------------------------------------------------------------------------------------------------------------------------------------------------------------
D|---------------------------------------------------------------------------------------------------------------------------------------------------------------
A|---------------------------------------------------------------------------------------------------------------------------------------------------------------
E|--8--8--10--11--10--8--10--11--10--8--8--3--8--11--10--8--8--10--11--10--8--8--3--8--11--10--8--8--10--11--10--8--8--3--8--11--10--8--8--10--11--10--8--8--10--



E|------------------------------------------------------------------------------------------------------------------------------------------------------------------
B|------------------------------------------------------------------------------------------------------------------------------------------------------------------
G|------------------------------------------------------------------------------------------------------------------------------------------------------------------
D|------------------------------------------------------------------------------------------------------------------------------------------------------------------
A|------------------------------------------------------------------------------------------------------------------------------------------------------------------
E|--9--9--11--12--11--9--9--11--12--11--9--9--3--9--12--11--9--9--11--12--11--9--9--3--9--12--11--9--9--11--12--11--9--9--3--9--12--11--9--9--11--12--11--9--9--11--



E|---------------
B|---------------
G|---------------
D|---------------
A|---------------
E|--12--6--5--3--



E|-----------------------------
B|-----------------------------
G|-----------------------------
D|-----------------------------
A|-----------------------------
E|----0----0----0----0----0----



E|--------------------------------------------------------------------------------------------------------------------------
B|--------------------------------------------------------------------------------------------------------------------------
G|--------------------------------------------------------------------------------------------------------------------------
D|--------------------------------------------------------------------------------------------------------------------------
A|--------5--5--4--4--3--3--------------5--5--4--4--3--3--------------5--5--4--4--3--3--------------5--5--4--4--3--3--------
E|--0--0--------------------3--6--0--0--------------------3--5--0--0--------------------3--6--0--0--------------------5--3--



E|-----------------------
B|-----------------------
G|-----------------------
D|-----------------------
A|-----------------------
E|--6--6--6--5--5--5--0--
http://www.guitartabcreator.com
Guitar Tab Creator is intended to store guitar tab created through the tool. It currently does not support in-line text editing. Any text you place in here will be lost. If you need to comment on your tab, please use the "Tab Notes" section located below.