E Phrygian Dominant lick

(/) Slide Up  (\) Slide Down  (h) Hammer On  (p) Pull Off  (b) Bend (r) Release (v) Vibrato

E|--17--16--13----------------------13--16--17--16--13--------------
B|--------------17--15--13--15--17----------------------17--15--13--
G|------------------------------------------------------------------
D|------------------------------------------------------------------
A|------------------------------------------------------------------
E|------------------------------------------------------------------



E|------------------------------------------------------------------
B|--17--15--13----------------------13--15--17--15--13--------------
G|--------------16--14--13--14--16----------------------16--14--13--
D|------------------------------------------------------------------
A|------------------------------------------------------------------
E|------------------------------------------------------------------



E|------------------------------------------------------------------
B|------------------------------------------------------------------
G|--16--14--13----------------------13--14--16--14--13--------------
D|--------------15--14--12--14--15----------------------15--14--12--
A|------------------------------------------------------------------
E|------------------------------------------------------------------



E|------------------------------------------------------------------
B|------------------------------------------------------------------
G|------------------------------------------------------------------
D|--15--14--12----------------------12--14--15--14--12--------------
A|--------------15--14--12--14--15----------------------15--14--12--
E|------------------------------------------------------------------



E|----------------------------------------------------------------------
B|----------------------------------------------------------------------
G|----------------------------------------------------------------------
D|----------------------------------------------------------------------
A|--15--14--12----------------------12--14--15--14--12------------------
E|--------------16--13--12--13--16----------------------16--13--12--12--
http://www.guitartabcreator.com
Guitar Tab Creator is intended to store guitar tab created through the tool. It currently does not support in-line text editing. Any text you place in here will be lost. If you need to comment on your tab, please use the "Tab Notes" section located below.