16th note sweep picking excercise

(/) Slide Up  (\) Slide Down  (h) Hammer On  (p) Pull Off  (b) Bend (r) Release (v) Vibrato


E|-----------4--1--------------------2--5--------------------6--3-----------
B|--------3--------2--------------3--------4--------------5--------4--------
G|-----2--------------3--------4--------------3--------4--------------5-----
D|--1--------------------4--5--------------------2--3--------------------6--
A|--------------------------------------------------------------------------
E|--------------------------------------------------------------------------



E|-----------4--7-----------
B|--------5--------6--------
G|-----6--------------5-----
D|--7--------------------4--
A|--------------------------
E|--------------------------
http://www.guitartabcreator.com
Guitar Tab Creator is intended to store guitar tab created through the tool. It currently does not support in-line text editing. Any text you place in here will be lost. If you need to comment on your tab, please use the "Tab Notes" section located below.