G Minor to A Minor Scales

(/) Slide Up  (\) Slide Down  (h) Hammer On  (p) Pull Off  (b) Bend (r) Release (v) Vibrato

E|-------------------------------------------15-17-18-17-15-------------------------------------------
B|----------------------------------15-16-18----------------18-16-15----------------------------------
G|-------------------------14-15-17----------------------------------17-15-14-------------------------
D|-------------------15-17----------------------------------------------------17-15-------------------
A|----------15-17-18----------------------------------------------------------------18-17-15----------
E|-15-17-18----------------------------------------------------------------------------------18-17-15-



E|--------------------------------------------5--7--8--7--5--------------------------------------------
B|-----------------------------------5--6--8-----------------8--6--5-----------------------------------
G|--------------------------4--5--7-----------------------------------7--5--4--------------------------
D|--------------------5--7-----------------------------------------------------7--5--------------------
A|-----------5--7--8-----------------------------------------------------------------8--7--5-----------
E|--5--7--8-----------------------------------------------------------------------------------8--7--5--
http://www.guitartabcreator.com
Guitar Tab Creator is intended to store guitar tab created through the tool. It currently does not support in-line text editing. Any text you place in here will be lost. If you need to comment on your tab, please use the "Tab Notes" section located below.