G Minor to A Minor 4 Note Sequences

(/) Slide Up  (\) Slide Down  (h) Hammer On  (p) Pull Off  (b) Bend (r) Release (v) Vibrato

E|-------------------------------------------------------------------------------------------------
B|-------------------------------------------------------------------------------------------------
G|----------------------------------------------------------------------14-------14-15----14-15-17-
D|----------------------------------------------15-------15-17----15-17----15-17-------17----------
A|----------15-------15-17----15-17-18-15-17-18----17-18-------18----------------------------------
E|-15-17-18----17-18-------18----------------------------------------------------------------------



E|----------------------------------------------15-------15-17----15-17-18-18-17-15----17-15-------
B|----------15-------15-16----15-16-18-15-16-18----16-18-------18-------------------18-------18-16-
G|-14-15-17----15-17-------17----------------------------------------------------------------------
D|-------------------------------------------------------------------------------------------------
A|-------------------------------------------------------------------------------------------------
E|-------------------------------------------------------------------------------------------------



E|-15----------------------------------------------------------------------------------------------
B|----18-16-15-18-16-15----16-15-------15----------------------------------------------------------
G|----------------------17-------17-15----17-15-14-17-15-14----15-14-------14----------------------
D|----------------------------------------------------------17-------17-15----17-15----17-15-------
A|----------------------------------------------------------------------------------18-------18-17-
E|-------------------------------------------------------------------------------------------------



E|-----------------------------------------------------
B|-----------------------------------------------------
G|-----------------------------------------------------
D|-15----------------------------------------------17v-
A|----18-17-15-18-17-15----17-15-------15--------------
E|----------------------18-------18-17----18-17-15-----



E|-----------------------------------------------------------------------------------------------5-
B|-----------------------------------------------------------------------5-----5-6---5-6-8-5-6-8---
G|-----------------------------------------------4-----4-5---4-5-7-4-5-7---5-7-----7---------------
D|-------------------------------5-----5-7---5-7---5-7-----7---------------------------------------
A|-------5-----5-7---5-7-8-5-7-8---7-8-----8-------------------------------------------------------
E|-5-7-8---7-8-----8-------------------------------------------------------------------------------



E|-----5-7---5-7-8-8-7-5---7-5-----5---------------------------------------------------------------
B|-6-8-----8-------------8-----8-6---8-6-5-8-6-5---6-5-----5---------------------------------------
G|-----------------------------------------------7-----7-5---7-5-4-7-5-4---5-4-----4---------------
D|-----------------------------------------------------------------------7-----7-5---7-5---7-5-----
A|---------------------------------------------------------------------------------------8-----8-7-
E|-------------------------------------------------------------------------------------------------



E|------------------------------------------------------
B|------------------------------------------------------
G|------------------------------------------------------
D|--5-----------------------------------------------7v--
A|-----8--7--5--8--7--5-----7--5--------5---------------
E|-----------------------8--------8--7-----8--7--5------
http://www.guitartabcreator.com
Guitar Tab Creator is intended to store guitar tab created through the tool. It currently does not support in-line text editing. Any text you place in here will be lost. If you need to comment on your tab, please use the "Tab Notes" section located below.