F Major to G Major Scales

(/) Slide Up  (\) Slide Down  (h) Hammer On  (p) Pull Off  (b) Bend (r) Release (v) Vibrato

E|----------------------------------------------15-17-18-17-15-------------------------------------
B|-------------------------------------15-17-18----------------18-17-15----------------------------
G|----------------------------14-15-17----------------------------------17-15-14-------------------
D|-------------------14-15-17----------------------------------------------------17-15-14----------
A|----------13-15-17----------------------------------------------------------------------17-15-13-
E|-13-15-17----------------------------------------------------------------------------------------



E|----------
B|----------
G|----------
D|----------
A|----------
E|-17-15-13-



E|-----------------------------------------------5--7--8--7--5-----------------------------------------------
B|--------------------------------------5--7--8-----------------8--7--5--------------------------------------
G|-----------------------------4--5--7-----------------------------------7--5--4-----------------------------
D|--------------------4--5--7-----------------------------------------------------7--5--4--------------------
A|-----------3--5--7-----------------------------------------------------------------------7--5--3-----------
E|--3--5--7-----------------------------------------------------------------------------------------7--5--3--
http://www.guitartabcreator.com
Guitar Tab Creator is intended to store guitar tab created through the tool. It currently does not support in-line text editing. Any text you place in here will be lost. If you need to comment on your tab, please use the "Tab Notes" section located below.