Csharp Chinese Scale and 3 Note Sequence

(/) Slide Up  (\) Slide Down  (h) Hammer On  (p) Pull Off  (b) Bend (r) Release (v) Vibrato

E|-------------------------9-11-9-------------------------
B|------------------7-9-11--------11-9-7------------------
G|----------------8----------------------8----------------
D|-----------8-11--------------------------11-8-----------
A|------9-11------------------------------------11-9------
E|-9-11----------------------------------------------11-9-



E|---------------------------------------------------------------9----9-11-11-9----9-----------------
B|-------------------------------------------7---7-9-7-9-11-9-11---11-----------11---11-9-11-9-7-9-7-
G|------------------------------------8----8---8-----------------------------------------------------
D|---------------------8----8-11-8-11---11-----------------------------------------------------------
A|------9----9-11-9-11---11--------------------------------------------------------------------------
E|-9-11---11-----------------------------------------------------------------------------------------



E|------------------------------------------------------------------------
B|-----7------------------------------------------------------------------
G|--8-----8------8--------------------------------------------------------
D|-----------11-----11--8--11--8------8------------------------------11v--
A|--------------------------------11-----11--9--11--9------9--------------
E|-----------------------------------------------------11-----11--9-------
http://www.guitartabcreator.com
Guitar Tab Creator is intended to store guitar tab created through the tool. It currently does not support in-line text editing. Any text you place in here will be lost. If you need to comment on your tab, please use the "Tab Notes" section located below.