My Tab

(/) Slide Up  (\) Slide Down  (h) Hammer On  (p) Pull Off  (b) Bend (r) Release (v) Vibrato
E|--------------------------------------------------------------------------
B|--------------------------------------------------------------------------
G|-----------0-----------------0-----------------0-----------------0--------
D|--------0-----0-----------0-----0-----------0-----0-----------0-----0-----
A|-----1-----------1-----1-----------1-----1-----------1-----1-----------1--
E|--3-----------------3-----------------3-----------------3-----------------



E|--------------------------------------------------------------------------
B|--------------------------------------------------------------------------
G|-----------0-----------------0-----------------0-----------------0--------
D|--------3-----3-----------3-----3-----------3-----3-----------3-----3-----
A|-----4-----------4-----4-----------4-----4-----------4-----4-----------4--
E|--5-----------------5-----------------5-----------------5-----------------



E|--------------------------------------------------------------------------
B|--------------------------------------------------------------------------
G|-----------0-----------------0-----------------0-----------------0--------
D|--------0-----0-----------0-----0-----------0-----0-----------0-----0-----
A|-----1-----------1-----1-----------1-----1-----------1-----1-----------1--
E|--3-----------------3-----------------3-----------------3-----------------



E|--------------------------------------------------------------------------
B|--------------------------------------------------------------------------
G|-----------0-----------------0-----------------0-----------------0--------
D|--------5-----5-----------5-----5-----------5-----5-----------5-----5-----
A|-----7-----------7-----7-----------7-----7-----------7-----7-----------7--
E|--8-----------------8-----------------8-----------------8-----------------



E|--------------------------------------------------------------------
B|--------------------------------------------------------------------
G|--9--7-----7-----------------------9--7-----7-----------------------
D|--------9-----9------9-------------------9-----9------9-------------
A|-----------------10-----10--9--10-----------------10-----10--9--10--
E|--------------------------------------------------------------------



E|--------------------------------------------------------------
B|--------------------------------------------------------------
G|--5--4-----4--------------------5--4-----4--------------------
D|--------5-----5--0--5--0--------------5-----5--0--5--0--------
A|--------------------------------------------------------------
E|--------------------------8--7--------------------------8--7--



E|--------------------------------------------------------------------
B|--------------------------------------------------------------------
G|--9--7-----7-----------------------9--7-----7-----------------------
D|--------9-----9------9-------------------9-----9------9-------------
A|-----------------10-----10--9--10-----------------10-----10--9--10--
E|--------------------------------------------------------------------



E|--------------------------------------------------------------
B|--------------------------------------------------------------
G|--5--4-----4--------------------5--4-----4--------------------
D|--------5-----5--0--5--0--------------5-----5--0--5--0--------
A|--------------------------------------------------------------
E|--------------------------8--7--------------------------8--6--



E|--------------------------------------------------
B|--------------------------------------------------
G|--0--0--0--0--0--0--0--0--0--0--0--0--0--0--0--0--
D|--0--0--0--0--0--0--0--0--3--3--3--3--3--3--3--3--
A|--1--1--1--1--1--1--1--1--4--4--4--4--4--4--4--4--
E|--3--3--3--3--3--3--3--3--5--5--5--5--5--5--5--5--



E|----------------------------------------------------------
B|----------------------------------------------------------
G|--0---0---0---0---0---0---0---0---0--0--0--0--0--0--0--0--
D|--8---8---8---8---8---8---8---8---8--8--8--8--8--8--8--8--
A|--10--10--10--10--10--10--10--10--7--7--7--7--7--7--7--7--
E|--10--10--10--10--10--10--10--10--9--9--9--9--9--9--9--9--



E|--------------------------------------------------
B|--------------------------------------3--3--3--3--
G|--0--0--0--0--0--0--0--0--0--0--0--0--4--4--4--4--
D|--7--7--7--7--7--7--7--7--0--0--0--0--0--0--0--0--
A|--5--5--5--5--5--5--5--5--2--2--2--2--2--2--2--2--
E|--8--8--8--8--8--8--8--8--3--3--3--3--3--3--3--3--



E|--------------------------------------------3--3--
B|--------------------------------------3--3--3--3--
G|--0--0--0--0--0--0--0--0--0--0--0--0--4--4--0--0--
D|--7--7--7--7--7--7--7--7--0--0--0--0--0--0--0--0--
A|--5--5--5--5--5--5--5--5--2--2--2--2--2--2--2--2--
E|--8--8--8--8--8--8--8--8--3--3--3--3--3--3--3--3--



E|----------------------------------------------------------
B|----------------------------------------------------------
G|--4--4--4--4--7--7--7--4--7---7---7---7---10--10--10--7---
D|--5--5--5--5--5--5--5--5--8---8---8---8---8---8---8---8---
A|--7--7--7--7--7--7--7--7--10--10--10--10--10--10--10--10--
E|----------------------------------------------------------



E|-----
B|-----
G|-----
D|-----
A|-----
E|-----



E|----------------------------------------------------------
B|----------------------------------------------------------
G|--4--4--4--4--7--7--7--4--9---9---9---9---12--12--12--9---
D|--5--5--5--5--5--5--5--5--11--11--11--11--11--11--11--11--
A|--7--7--7--7--7--7--7--7--12--12--12--12--12--12--12--12--
E|----------------------------------------------------------



E|-12-10---------------------------12-10------------------------
B|-------13-12-10------------------------13-12-10---------------
G|----------------12-11-12-11-9-------------------12-11-12-11-9-
D|--------------------------------------------------------------
A|--------------------------------------------------------------
E|--------------------------------------------------------------



E|---------------7-9-10-9--------------------7-9-10-9-
B|--------7-9-10----------------------7-9-10----------
G|-7-9-10----------------------7-9-10-----------------
D|----------------------------------------------------
A|----------------------------------------------------
E|----------------------------------------------------



E|-12-10-----------------------------12-10------------------------
B|-------13-12-10--------------------------13-12-10---------------
G|----------------12-11-12-11-9---------------------12-11-12-11-9-
D|----------------------------------------------------------------
A|----------------------------------------------------------------
E|----------------------------------------------------------------



E|---------------7-9-10-9-----------------------------
B|--------7-9-10--------------------------------------
G|-7-9-10---------------------------------------------
D|----------------------------------------------------
A|----------------------------------------------------
E|----------------------------------------------------



E|-3---5--5b6--r5-3-3h5------5---5---5---5---5---5-
B|----------------------5--5---6---5---6---5---6---
G|-------------------------------------------------
D|-------------------------------------------------
A|-------------------------------------------------
E|-------------------------------------------------



E|-3--5-5b6--r5-3----------------3-5-6-
B|----------------6--5--3--2-3-5-------
G|-------------------------------------
D|-------------------------------------
A|-------------------------------------
E|-------------------------------------



E|-3--5-5b6--r5-3-3h5------5---6---8---10---8---6-
B|--------------------5--5---5---5---5----5---5---
G|------------------------------------------------
D|------------------------------------------------
A|------------------------------------------------
E|------------------------------------------------



E|-3--5-5b6--r5-3------------------------------------
B|----------------2--3--5--2-3-5-3-2-----------------
G|-----------------------------------3-0-----------2-
D|---------------------------------------------------
A|---------------------------------------------------
E|---------------------------------------------------



E|------------------------------------------------------------------8-
B|--------------------------------------8------8------------5---8-----
G|------4-5-7-7-----------------7-7b9-----7b9----7b9r7-4-5------------
D|----------------7-7-------------------------------------------------
A|--------------------------------------------------------------------
E|--------------------------------------------------------------------



E|-7p5----------7-8-10-10--------------------10-12-----12h15-12-------------
B|-----8--------------------10-10------10b12--------------------15b17r15-12-
G|--------------------------------------------------------------------------
D|--------------------------------------------------------------------------
A|--------------------------------------------------------------------------
E|--------------------------------------------------------------------------



E|-------------15----20-
B|-13----17-------------
G|----------------------
D|----------------------
A|----------------------
E|----------------------



E|-19-17-----19-17-19-17-19-17-19-20-19-17-19-17-19-17------
B|-------20--------------------------------------------19---
G|----------------------------------------------------------
D|----------------------------------------------------------
A|----------------------------------------------------------
E|----------------------------------------------------------



E|-19-17-19-17-19-17-19-20-19-17-19-17-19-17----------------
B|-------------------------------------------20-19-17----17-
G|----------------------------------------------------------
D|----------------------------------------------------------
A|----------------------------------------------------------
E|----------------------------------------------------------



E|-19-17-19-17-19-17-19-20-19-17-19-17-19-17--------------------------------
B|-------------------------------------------20-19-17--------------17-19-20-
G|----------------------------------------------------19-17--17-19----------
D|--------------------------------------------------------------------------
A|--------------------------------------------------------------------------
E|--------------------------------------------------------------------------



E|-17-19-20-21-20-19-20-
B|----------------------
G|----------------------
D|----------------------
A|----------------------
E|----------------------



E|-19-17----19-17-19-17-19-17-19-20-19-17-19-17-19-17----
B|-------20-------------------------------------------19-
G|-------------------------------------------------------
D|-------------------------------------------------------
A|-------------------------------------------------------
E|-------------------------------------------------------



E|-19-17-19-17-19-17-19-20-19-17-19-17-19-17----------
B|-------------------------------------------20-19-17-
G|----------------------------------------------------
D|----------------------------------------------------
A|----------------------------------------------------
E|----------------------------------------------------



E|-19-17-19-17-19-17-19-20-19-17-19-17-19-17--------------------------
B|-------------------------------------------20-19-17-----------------
G|----------------------------------------------------19-17---16---14-
D|--------------------------------------------------------------------
A|--------------------------------------------------------------------
E|--------------------------------------------------------------------



E|----------
B|-12p10----
G|-------12-
D|----------
A|----------
E|----------
http://www.guitartabcreator.com
Guitar Tab Creator is intended to store guitar tab created through the tool. It currently does not support in-line text editing. Any text you place in here will be lost. If you need to comment on your tab, please use the "Tab Notes" section located below.