Spain Guitar

(/) Slide Up  (\) Slide Down  (h) Hammer On  (p) Pull Off  (b) Bend (r) Release (v) Vibrato


E|-----------------------------------------------------------------------
B|-----------------------------------------------------------------------
G|-----9--12--11---------9---------------------------------9--9--12--11--
D|--9-------------12--9---------12--11------9----------12----------------
A|--------------------------12----------12-----10--10--------------------
E|-----------------------------------------------------------------------



E|--------------------------------------------------------------------------
B|--------------------------------------------------------------------------
G|----------------9--6-----------------6--6-----------------------------11--
D|--12--9--12--9--------9--6--------8--------8--6---------------------------
A|----------------------------7--9-----------------9--9--11--13--12--9------
E|--------------------------------------------------------------------------
http://www.guitartabcreator.com
Guitar Tab Creator is intended to store guitar tab created through the tool. It currently does not support in-line text editing. Any text you place in here will be lost. If you need to comment on your tab, please use the "Tab Notes" section located below.