This is My Beloved Son

(/) Slide Up  (\) Slide Down  (h) Hammer On  (p) Pull Off  (b) Bend (r) Release (v) Vibrato
E|--------------0-----0--------------0-----0--
B|--7--------------7--7--7--------------7--7--
G|-----7--------------7-----7--------------7--
D|--------4-----------5--------4-----------5--
A|--5--------5--------5--5--------5--------5--
E|--------------------0--------------------0--



E|--------------------------0--------------------5-----------------------
B|--7--------------------------7-----7--------------8--7-----------------
G|-----7--4--6--7--9--7-----------7-----7--4--7--------6--6-----------6--
D|--------5--------------4--------5--------5-----------8-----8-----8-----
A|--5-----0-----------5-----------5--5-----0--------------------9--------
E|--------------------------------0--------------------6-----------------



E|--2-----2--5--7--9--7--5-----0-----------5--7--5--3--2--2-----5--------0-----------------------------
B|--3--3--2--5-----------3--3--3--0--2--3--------------2--3-----------------7--------------------------
G|--4-----4--6--7--9--7--4-----6--0--------------------3--4--------7-----------7-----------------------
D|-----------------------------4-----------------------4--5-----------4-----------4--------------------
A|--2-----0--------------------0-----------------------------0-----5-----------------------------------
E|-----------------------3--------0-----------------------3--------------------------------------------
http://www.guitartabcreator.com
Guitar Tab Creator is intended to store guitar tab created through the tool. It currently does not support in-line text editing. Any text you place in here will be lost. If you need to comment on your tab, please use the "Tab Notes" section located below.