Something Like Olivia Solo Tab (May 28,2013)

(/) Slide Up  (\) Slide Down  (h) Hammer On  (p) Pull Off  (b) Bend (r) Release (v) Vibrato
E|-------------------------------|--
B|--10b12--10--8--3--------------|--
G|----------------5--------------|--
D|----------------5--7------7/9--|--
A|----------------------10-------|--
E|-------------------------------|--



E|--------------------------------|--
B|-----10b12--10--8-----10-----8--|--
G|--9----------------9------9-----|--
D|--------------------------------|--
A|--------------------------------|--
E|--------------------------------|--



E|--3-3p3--------------3v--|--
B|--3h5-3------------------|--
G|---------5--3/4\3\4------|--
D|-------------------------|--
A|-------------------------|--
E|-------------------------|--



E|------------------------------|--
B|-----8--6---------------------|--
G|-----------9--7------3/4\3/4--|--
D|--9--------------10-----------|--
A|------------------------------|--
E|------------------------------|--



E|---------10------------------------------------------|--
B|--10b12------10b12--10--10b12r10--8--8--10b12r10--8--|--
G|-----------------------------------------------------|--
D|-----------------------------------------------------|--
A|-----------------------------------------------------|--
E|-----------------------------------------------------|--



E|--------------------|-----
B|--------------------|-----
G|--5b7--3--5-----3v--|-----
D|-------------5------|-----
A|--------------------|-----
E|--------------------|-----
http://www.guitartabcreator.com
Guitar Tab Creator is intended to store guitar tab created through the tool. It currently does not support in-line text editing. Any text you place in here will be lost. If you need to comment on your tab, please use the "Tab Notes" section located below.