the cornerstone song 1

(/) Slide Up  (\) Slide Down  (h) Hammer On  (p) Pull Off  (b) Bend (r) Release (v) Vibrato

intro:

E|--5-2-------
B|----5-3-5p3-
G|-----------4
D|------------
A|------------
E|------------

verse chords (rhythm guitar): Bm, Em, Dmaj, Bm, Amaj, Bm x4
verse chords (lead guitar) : B5, E5, D5, B5, A5, B5 x4

pre-chorus: crescendo on lead guitar G5 and drums crescendo

Chorus:

E|--3--3---3-3-3-3---7--7---7-7-7--10-
B|--5--5---5-5-5-5--------------------
G|--4--4---4-4-4-4--------------------
D|-------------------5--5---5-5-5--7--
A|------------------------------------
E|------------------------------------



Guitar Tab Creator is intended to store guitar tab created through the tool. It currently does not support in-line text editing. Any text you place in here will be lost. If you need to comment on your tab, please use the "Tab Notes" section located below.