You Aint Seen Nothin Yet Solo

(/) Slide Up  (\) Slide Down  (h) Hammer On  (p) Pull Off  (b) Bend (r) Release (v) Vibrato


E|--------------------------------------5-------------------------------
B|-----------------------------7--5--7-----------17--15--14--15---------
G|--9--11--9\7--9--7--9--6-------------------14------------------14-----
D|--------------------------7-------------------------------------------
A|----------------------------------------------------------------------
E|----------------------------------------------------------------------



E|--------------------------------------17------------------------------------
B|------17--15--14--15--17----17------------17b19--17--15--14--15--17---------
G|--14------------------------------14---------------------------------14-----
D|----------------------------------------------------------------------------
A|----------------------------------------------------------------------------
E|----------------------------------------------------------------------------



E|------17-----------------------------
B|----------17b19--17--14--15--17------
G|--14-----------------------------14--
D|-------------------------------------
A|-------------------------------------
E|-------------------------------------
http://www.guitartabcreator.com
Guitar Tab Creator is intended to store guitar tab created through the tool. It currently does not support in-line text editing. Any text you place in here will be lost. If you need to comment on your tab, please use the "Tab Notes" section located below.